Song name
# A B C D E F G H I J K L M N O P Q R S T U V W X Y Z

Beatles - Norwegian Wood tab

Help us improve GuitareTab! Take a short survey!
===============================================================
               "Norwegian Wood (This bird has flown)"
===============================================================
*From the great album "Rubber Soul" (released on 3/December/1965)
*Written by Lennon/McCartney
*playing.the.angel_@hotmail.com (Sebastian)

Gtr I (E A D G B E) - 'Rhythm'
Gtr II (E A D G B E) - 'Sitar'

 Intro
  Moderately Q.=60
  E                                   DaddA/C#E
 6/8
  Gtr I
  E E E a E E E   E E E E E E   E E E E E E   E S S E E E E
|---2-2---------|---2-2-------|---2-2-------|---------------|
|---3-3---------|---3-3-------|---3-3-------|---3-3-3-3-3-3-|
|-2-----2h4-2-0-|---2-2---0---|---2-2---0---|---2-2-2-2-2-2-|
|---------------|-4-----2---4-|-0-----------|---0-0-0-0-0-0-|
|---------------|-------------|-------3---2-|-0-------------|
|---------------|-------------|-------------|---------------|


  E                                        Dadd9 A/C#E
 6/8
  Gtr I
  E  E E a E E E   E  E E E E   E   E  E E E   E E   E  S S E E E E
|----2-2---------|----2-2---------|----2-2---------|----------------|
|----3-3---------|----3-3---------|----3-3---------|----3-3-3-3-3-3-|
|-2------2h4-2-0-|----2-2---0-----|----2-2-----0---|----2-2-2-2-2-2-|
|----------------|-4------2-----4-|-0--------------|----0-0-0-0-0-0-|
|----------------|----------------|--------3-----2-|-0--------------|
|----------------|----------------|----------------|----------------|
|
| Gtr II
|                                                    ~~
| Q.     a E E E   Q.     E E   E   Q.     E   E E   H.
|-5------5h7-5---|----------------|------------3---|----------------|
|--------------8-|-7------5-7b8-7-|-3--------------|----------------|
|----------------|----------------|--------4b5---4-|-2--------------|
|----------------|----------------|----------------|----------------|
|----------------|----------------|----------------|----------------|
|----------------|----------------|----------------|----------------|


   Verse
    E                                   DaddA/C#E
   6/8
    Gtr I
    E E E a E E E   E E E E E E   E E E E E E   E S S E   E E E
||----2-2---------|---2-2-------|---2-2-------|------------------||
||o---3-3---------|---3-3-------|---3-3-------|---3-3-3---3-3-3-o||
||--2-----2h4-2-0-|---2-2---0---|---2-2---0---|---2-2-2---2-2-2--||
||----------------|-4-----2---4-|-0-----------|---0-0-0---0-0-0--||
||o---------------|-------------|-------3---2-|-0---------------o||
||----------------|-------------|-------------|------------------||
|
|   Gtr II
|   W               W             W             Q     E   E E E
||----------------|-------------|-------------|-----------3------||
||o---------------|-------------|-------------|-----------------o||
||----------------|-------------|-------------|-------4b5---4-2--||
||----------------|-------------|-------------|------------------||
||o---------------|-------------|-------------|-----------------o||
||----------------|-------------|-------------|------------------||


 Bridge
  $
  Em                    A
 6/8
  Gtr I
  E S S E S S S S S S   S S S S S S S S S S S S
|-1-1-1-1-1-1-1-1-1-1-|-3-3-3-3-3-3-3-3-3-3-3-3-|
|-3-3-3-3-3-3-3-3-3-3-|-0-0-0-0-0-0-0-0-0-0-0-0-|
|-2-2-2-2-2-2-2-2-2-2-|-0-0-0-0-0-0-0-0-0-0-0-0-|
|-0-0-0-0-0-0-0-0-0-0-|-0-0-0-0-0-0-0-0-0-0-0-0-|
|---------------------|-2-2-2-2-2-2-2-2-2-2-2-2-|
|---------------------|-3-3-3-3-3-3-3-3-3-3-3-3-|


  Em                    F#m7        B
  E S S E S S S S S S   S S S S S S S S S S S S
|-1-1-1-1-1-1-1-1-1-1-|-0-0-0-0-0-0-0-0-0-0-0-0-|
|-3-3-3-3-3-3-3-3-3-3-|-3-3-3-3-3-3-2-2-2-2-2-2-|
|-2-2-2-2-2-2-2-2-2-2-|-0-0-0-0-0-0-2-2-2-2-2-2-|
|-0-0-0-0-0-0-0-0-0-0-|-2-2-2-2-2-2-2-2-2-2-2-2-|
|---------------------|-2-2-2-2-2-2-0-0-0-0-0-0-|
|---------------------|-0-0-0-0-0-0-0-0-0-0-0-0-|


   Verse 2, 3
    E                                   DaddA/C#E
    E E E a E E E   E E E E E E   E E E E E E
||----2-2---------|---2-2-------|---2-2-------|
||o---3-3---------|---3-3-------|---3-3-------|
||--2-----2h4-2-0-|---2-2---0---|---2-2---0---|
||----------------|-4-----2---4-|-0-----------|
||o---------------|-------------|-------3---2-|
||----------------|-------------|-------------|


 1.                2.
                           To Coda
                    E
  E S S E E E E     E S S E E E E
|----------------||------------------|
|---3-3-3-3-3-3-o||---3-3-3-3-3-3----|
|---2-2-2-2-2-2--||---2-2-2-2-2-2----|
|---0-0-0-0-0-0--||---0-0-0-0-0-0----|
|-0-------------o||-0----------------|
|----------------||------------------|


   Interlude
    E                                        Dadd9 A/C#E
   6/8
    Gtr I
    E  E E a E E E   E  E E E E   E   E  E E E   E E
||-----2-2---------|----2-2---------|----2-2---------|
||o----3-3---------|----3-3---------|----3-3---------|
||--2------2h4-2-0-|----2-2---0-----|----2-2-----0---|
||-----------------|-4------2-----4-|-0--------------|
||o----------------|----------------|--------3-----2-|
||-----------------|----------------|----------------|
|
|   Gtr II
|   Q.     a E E E   Q.     E E   E   Q.     E   E E
||--5------5h7-5---|----------------|------------3---|
||o--------------8-|-7------5-7b8-7-|-3--------------|
||-----------------|----------------|--------4b5---4-|
||-----------------|----------------|----------------|
||o----------------|----------------|----------------|
||-----------------|----------------|----------------|


 1.                 2.
                        D.S. al Coda
                     E
  E  S S E E E E     E  S S E E E E
|-----------------||-----------------||
|----3-3-3-3-3-3-o||----3-3-3-3-3-3--||
|----2-2-2-2-2-2--||----2-2-2-2-2-2--||
|----0-0-0-0-0-0--||----0-0-0-0-0-0--||
|-0--------------o||-0---------------||
|-----------------||-----------------||
|
| ~~~~~~~~~~~~~~~~~~~~~~
| H.                 H.
|-----------------||-----------------||
|----------------o||-----------------||
|-2---------------||-2---------------||
|-----------------||-----------------||
|----------------o||-----------------||
|-----------------||-----------------||


  &
  E                                        Dadd9 A/C#E
 6/8
  Gtr I
                                                     ~~
  E  E E a E E E   E  E E E E   E   E  E E E   E E   E  H    E
|----2-2---------|----2-2---------|----2-2---------|------------*|
|----3-3---------|----3-3---------|----3-3---------|------------*|
|-2------2h4-2-0-|----2-2---0-----|----2-2-----0---|------------*|
|----------------|-4------2-----4-|-0--------------|------------*|
|----------------|----------------|--------3-----2-|-0----------*|
|----------------|----------------|----------------|------------*|
|
| Gtr II
|                                                    ~~
| Q.     a E E E   Q.     E E   E   Q.     E   E E   H.
|-5------5h7-5---|----------------|------------3---|------------*|
|--------------8-|-7------5-7b8-7-|-3--------------|------------*|
|----------------|----------------|--------4b5---4-|-2----------*|
|----------------|----------------|----------------|------------*|
|----------------|----------------|----------------|------------*|
|----------------|----------------|----------------|------------*|
Related for Norwegian Wood tab