Song name
# A B C D E F G H I J K L M N O P Q R S T U V W X Y Z

Beatles - I Want You Shes So Heavy tab

                       :::::::::::::::::::::::::::::
                       : I Want You (Shes So Heavy):
                       :::::::::::::::::::::::::::::

Hi, this is my first tab for an awesome song by The Beatles!!!

Intro:
    Dm            Dm/F         E7/b9          Bb7           A7/5+
e------1------------1-------------1-----------1--------------1-------------|
b----3---3---------3--3----------3-3---------3-3------------2--------------|
g--2------2-------2----2--------1---1-------1---1----------2---------------|
d-0--------------3------------2--------------------------------------------|
a------------------------------------------1-------------0-----------------|
E--------------------------------------------------------------------------|

Verse:       Guitar is played with the vocals


e----------------------------------------------------------------------------|
b---1-3b---------------------1-3-3b-1---1----3b------------------------------|
g-2-------------------------2---------2--------------------------------------|
d---------------777-------------------------------7777-----------------------|
a---------------777-------------------------------7777-----------------------|
E---------------555-------------------------------5555-----------------------|

e---------------------------------------------------------------|
b----1---3--3b-1------------------------------------------------|
g--2--------------2--0-----0-2-0--------------------------------|
d-----------------------2---------2-0---------------------------|
a--------------------------------------3-0----------------------|
E---------------------------------------------------------------|


Chords:

Dm:(xx0231)
Dm/F(xx3231)
E7/b9(xx2131)
Bb7(x11131)
A7/5+(xxx221)


Enjoy,comment and if something is wrong msg me by comments
Tap to rate this tab
# A B C D E F G H I J K L M N O P Q R S T U V W X Y Z