Song name
# A B C D E F G H I J K L M N O P Q R S T U V W X Y Z

Beatles - Happiness Is A Warm Gun chords

Highlighted       Show chord diagrams
Hey it's guitar2player and this is my first beatles tab!!
This is a great song so have fun w/ it ! 
Standard Tuning: EADGBe

Chord Diagrams:
Am    Em   Dm   A7   C    F    G7 
|-0--|-0--|-1--|-x--|-0--|-1--|-1--|
|-1--|-0--|-3--|-0--|-1--|-1--|-0--|
|-2--|-0--|-2--|-2--|-0--|-2--|-0--|
|-2--|-2--|-0--|-2--|-2--|-3--|-0--|
|-0--|-2--|-x--|-0--|-3--|-x--|-2--|
|-x--|-0--|-x--|-x--|-x--|-x--|-3--|


 Am              Em   
She's not a girl who misses much
 Am               Em
Do do do do do do, oh yeah
 Dm
She's well acquainted with the touch of the velvet hand
                 Am            
Like a lizard on a window pane
Dm
The man in the crowd with the multicoloured mirrors
   Am                     
On his hobnail boots
Dm
Lying with his eyes while his hands are busy
Am
Working overtime
Dm
A soap impression of his wife which he ate
               Am
And donated to the National Trust

(Pause) For guitar lick :
|----------------------|----------------------|-------------------------|
|----------------------|----------------------|-------------------------|
|----------------------|----------------------|-------------------------|
|----------------------|----------------------|-------------------------|
|--7-b(10)---3----3----|--5-b(7)--5-b(7)--3---|--7-b(9)--3----3--5b(7)--|
|--------------5-------|--------------------5-|------------5------------|

|-----------------------------------------|
|-----------------------------------------|
|-----------------------------------------|
|-----------------------------------------|
|---7--3-----3---5-b(7)---5-b(7)----3-----|
|---------5----------------------------5--|       

A7
I need a fix 'cause I'm going down
                             C
Down to the bits that I left up-town
A7                           C
I need a fix cause I'm going down

A7              C          A7
Mother Superior jump the gun
A7              C          A7
Mother Superior jump the gun
A7              C          A7
Mother Superior jump the gun
A7              C          A7
Mother Superior jump the gun
A7              C          A7
Mother Superior jump the gun
A7              G7
Mother Superior jump the gun

C         Am           F     G7
Happiness (is a warm gun)
C         Am           F     G7
Happiness (is a warm gun)
C      Am       F       G7    
When I hold you in my arms
(Oooooooooh, oh yeah!)
C                 Am               F            
And when I feel my finger on your trigger
(Oooooooooh, oh yeah!)
G7
I know nobody can do me no harm
(Oooooooooh, oh yeah!)

    C         Am           F      G7           
Cuz!Happiness (is a warm gun)
C         Am           F        G7
Happiness (is a warm gun)
F (hold)      C        Am     F      G7  
Yes it is.... gun!
C         Am           F        G7
Happiness (is a warm gun)

C         Am (hold)        
Happiness 
F         G7   C (hold)         
Is a warm gun, Yeeeeeah!
Tap to rate this tab
# A B C D E F G H I J K L M N O P Q R S T U V W X Y Z