Song name
# A B C D E F G H I J K L M N O P Q R S T U V W X Y Z

Beatles - Wild Honey Pie tab

-------------------------------------------------------------------------------
			     Wild Honey Pie - Beatles
-------------------------------------------------------------------------------
Tabbed by: adamjimenstein

Tuning:Standard

inrto (and most of the song)
Riff 1
e|---13---------------11-------------------------|
B|----------12----------------10-----------------|
G|-------12----12---------10-------10------------|
D|-----------------------------------------------|
A|-----------------------------------------------|
E|-----------------------------------------------|
 Riff 2
e|--------------------------------------------------------------------|
B|---13--13--13--13----12--12--12--12----11--11--11--11---10----------|
G|---14--14--14--14----13--13--13--13----12--12--12--12---11----------|
D|---12--12--12--12----11--11--11--11----10--10--10--10---9-----------|
A|--------------------------------------------------------------------|
E|--------------------------------------------------------------------|

Riff 3a
and on the first and second "Honey Pie!!" parts:
e|--13--------------------------------------------------------------------|
B|---------12------13-----------------------------------------------------|
G|-----12-----12---14-----------------------------------------------------|
D|-----------------12-----------------------------------------------------|
A|------------------------------------------------------------------------|
E|------------------------------------------------------------------------|

Riff 3b
e|-------------------------------------------------------------------------|
B|-------------------------------------13-13-13-13-13-13-13----------------|
G|--13-13-13-13-13-13-13-13-13-13-13---14-14-14-14-14-14-14----------------| times 4
D|--14-14-14-14-14-14-14-14-14-14-14---12-12-12-12-12-12-12----------------|
A|--12-12-12-12-12-12-12-12-12-12-12---------------------------------------|
E|-------------------------------------------------------------------------|

ending ("I love you")
e|--------------------------------------------------------------|
B|-------13-----------------------------------------------------|
G|-------14-----------------------------------------------------|
D|-------12-----------------------------------------------------|
A|--------------------------------------------------------------|
E|--------------------------------------------------------------|

Song Structure:
Riff 1
Riff 2
Riff 3a
Riff 1
Riff 2
Riff 3a
Riff 1
Riff 2
Riff 3b
ending


| /  slide up
| \  slide down
| h  hammer-on
| p  pull-off
| ~  vibrato
| +  harmonic
| x  Mute note
===============================================================================
Tap to rate this tab
 
# A B C D E F G H I J K L M N O P Q R S T U V W X Y Z