Song name
# A B C D E F G H I J K L M N O P Q R S T U V W X Y Z

Beatles - Birthday tab

-------------------------------------------------------------------------------
			     Birthday - Beatles
-------------------------------------------------------------------------------
Tabbed by: gomm23
Email:

Tuning: standard

E----------------0----3--2---0------------------------------|
B-----------2-----------------------------------------------|
G--2---2-------------------------2--------------------------|
D-----------------------------------------------------------|
A-----------------------------------------------------------|
E-----------------------------------------------------------|

E----------------0----3--2---0------------------------------|
B-----------2-----------------------------------------------|
G--2---2-------------------------2--------------------------|
D-----------------------------------------------------------|
A-----------------------------------------------------------|
E-----------------------------------------------------------|

E----------------5----8--7---5------------------------------|
B-----------7-----------------------------------------------|
G--7---7-------------------------7--------------------------|
D-----------------------------------------------------------|
A-----------------------------------------------------------|
E-----------------------------------------------------------|

E----------------0----3--2---0------------------------------|
B-----------2-----------------------------------------------|
G--2---2-------------------------2--------------------------|
D-----------------------------------------------------------|
A-----------------------------------------------------------|
E-----------------------------------------------------------|

E----------------7----10--9---7-----------------------------|
B-----------9-----------------------------------------------|
G--9---9-------------------------9--------------------------|
D-----------------------------------------------------------|
A-----------------------------------------------------------|
E-----------------------------------------------------------|

E----------------0----3--2---0------------------------------|
B-----------2-----------------------------------------------|
G--2---2-------------------------2--------------------------|
D-----------------------------------------------------------|
A-----------------------------------------------------------|
E-----------------------------------------------------------|

E----------------0----3--2---0------------------------------|
B-----------2-----------------------------------------------|
G--2---2-------------------------2--------------------------|
D-----------------------------------------------------------|
A-----------------------------------------------------------|
E-----------------------------------------------------------|
They say it's yor birthday...
E----------------0----3--2---0------------------------------|
B-----------2-----------------------------------------------|
G--2---2-------------------------2--------------------------|
D-----------------------------------------------------------|
A-----------------------------------------------------------|
E-----------------------------------------------------------|
It's My Birthday too...
E----------------5----8--7---5------------------------------|
B-----------7-----------------------------------------------|
G--7---7-------------------------7--------------------------|
D-----------------------------------------------------------|
A-----------------------------------------------------------|
E-----------------------------------------------------------|
They say it's yor birthday...
E----------------0----3--2---0------------------------------|
B-----------2-----------------------------------------------|
G--2---2-------------------------2--------------------------|
D-----------------------------------------------------------|
A-----------------------------------------------------------|
E-----------------------------------------------------------|
We're going to have a good time...
E----------------7----10--9---7-----------------------------|
B-----------9-----------------------------------------------|
G--9---9-------------------------9--------------------------|
D-----------------------------------------------------------|
A-----------------------------------------------------------|
E-----------------------------------------------------------|
I'm glad it's your birthday...
E----------------0----3--2---0------------------------------|
B-----------2-----------------------------------------------|
G--2---2-------------------------2--------------------------|
D-----------------------------------------------------------|
A-----------------------------------------------------------|
E-----------------------------------------------------------|
Happy birthday to you...

Pre-Chorus
e-------------------|
B-------------------|
G-----9----7--9-----|
D-----9----7--9-----|
A-----7----5--7-----|
E-------------------|x4

Yes we're going to a party

Chorus
e---------------------------------------------------------------|
B---------------------------------------------------------------|
G---------------------------------------------------------------|
D------------2--2---3--3---4--4---5--5---3--3---2--2---0--0-----|
A-----3--3------------------------------------------------------|
E---------------------------------------------------------------|x3

Then play this
e-------------------------------------------------------------------|
B-------------------------------------------------------------------|
G-------------------------------------------------------------------|
D------------2--2---3--3---4--4---5--5---6--6---7--7---8--8---9~----|
A-----3--3----------------------------------------------------------|
E-------------------------------------------------------------------|


E----------------0----3--2---0------------------------------|
B-----------2-----------------------------------------------|
G--2---2-------------------------2--------------------------|
D-----------------------------------------------------------|
A-----------------------------------------------------------|
E-----------------------------------------------------------|x2

E----------------5----8--7---5------------------------------|
B-----------7-----------------------------------------------|
G--7---7-------------------------7--------------------------|
D-----------------------------------------------------------|
A-----------------------------------------------------------|
E-----------------------------------------------------------|

E----------------0----3--2---0------------------------------|
B-----------2-----------------------------------------------|
G--2---2-------------------------2--------------------------|
D-----------------------------------------------------------|
A-----------------------------------------------------------|
E-----------------------------------------------------------|

E----------------5----8--7---5------------------------------|
B-----------7-----------------------------------------------|
G--7---7-------------------------7--------------------------|
D-----------------------------------------------------------|
A-----------------------------------------------------------|
E-----------------------------------------------------------|

E----------------0----3--2---0------------------------------|
B-----------2-----------------------------------------------|
G--2---2-------------------------2--------------------------|
D-----------------------------------------------------------|
A-----------------------------------------------------------|
E-----------------------------------------------------------|

Solo
E------------5-----8-----7---5------------------------------|
B------7--------------------------7----0--------------------|
G--7----------------------------------------7---------------|
D-----------------------------------------------------------|
A-----------------------------------------------------------|
E-----------------------------------------------------------|
(This one you will have to play faster than the first)
E------------7----10----9--7-----------------------------------|
B------9----------------------9--0-----------------------------|
G--9---------------------------------9-------------------------|
D--------------------------------------------------------------|
A--------------------------------------------------------------|
E--------------------------------------------------------------|

e---------------------------------------------------------------|
B---------------------------------------------------------------|
G---------------------------------------------------------------|
D------------2--2---3--3---4--4---5--5---3--3---2--2---0--0-----|
A-----3--3------------------------------------------------------|
E---------------------------------------------------------------|x4
They say it's yor birthday...
E----------------0----3--2---0------------------------------|
B-----------2-----------------------------------------------|
G--2---2-------------------------2--------------------------|
D-----------------------------------------------------------|
A-----------------------------------------------------------|
E-----------------------------------------------------------|x2
It's My Birthday too...
E----------------5----8--7---5------------------------------|
B-----------7-----------------------------------------------|
G--7---7-------------------------7--------------------------|
D-----------------------------------------------------------|
A-----------------------------------------------------------|
E-----------------------------------------------------------|
They say it's yor birthday...
E----------------0----3--2---0------------------------------|
B-----------2-----------------------------------------------|
G--2---2-------------------------2--------------------------|
D-----------------------------------------------------------|
A-----------------------------------------------------------|
E-----------------------------------------------------------|
We're going to have a good time...
E----------------7----10--9---7-----------------------------|
B-----------9-----------------------------------------------|
G--9---9-------------------------9--------------------------|
D-----------------------------------------------------------|
A-----------------------------------------------------------|
E-----------------------------------------------------------|
I'm glad it's your birthday...
E----------------0----3--2---0------------------------------|
B-----------2-----------------------------------------------|
G--2---2-------------------------2--------------------------|
D-----------------------------------------------------------|
A-----------------------------------------------------------|
E-----------------------------------------------------------|
Happy Birthady to you...
E----------------0----3--2---0------------------------------|
B-----------2-----------------------------------------------|
G--2---2-------------------------2--------------------------|
D-----------------------------------------------------------|
A-----------------------------------------------------------|
E-----------------------------------------------------------|

| /  slide up
| \  slide down
| h  hammer-on
| p  pull-off
| ~  vibrato
| +  harmonic
| x  Mute note
===============================================================================
Tap to rate this tab
 
# A B C D E F G H I J K L M N O P Q R S T U V W X Y Z