Song name
# A B C D E F G H I J K L M N O P Q R S T U V W X Y Z

Beatles - I Will tab

This is my version of the I Will tab. It's mostly the tab at this location: 
but with a couple corrections, as he did not include part of the song.


%
% = repeat with the lyrics below.

E---------------------------------------------------------|
B-------------1-------------------------------------1-----|
G-----------------2---------0-----3-------------------2---|
D---2---3--------------3-------------------2---3----------|
A---------------------------------------------------------|
E---------------------------------------------------------|
    Who knows how long I've loved you?     You know I love


E---------------------1-------------------------------1---|
B------1--------1-------3----------1---------------1------|
G----------------------------3-0------2-------------------|
D--3---------------------------------------3--------------|
A---------------------------------------------------------|
E---------------------------------------------------------|
         you still.   Will I wait a lonely life time?   If you


E---------------------------------------------------------|
B--3------------------------------------------------------|
G-------3--0----------------------------------------------|
D--------------2-3----------------------------------------|
A---------------------------------------------------------|
E---------------------------------------------------------|
   want me to, I will

You know if I ever saw you,
I didn't catch your name
But it never really mattered,
I will always feel the same


E---------------------------------------------------------|
B-------------1-3-----------------------------1---1-------|
G-3----2---3-------2--------2---3----2---3-----------2----|
D----------------------0--3-------------------------------|
A---------------------------------------------------------|
E---------------------------------------------------------|
     Love you forever and forever, Love you with all my heart


E---------------------------------------------------------|
B--------------1-3----------------------------------------|
G-3----2---3--------2----------2----0----2---3----3-------|
D-------------------------0-3-----------------------------|
A---------------------------------------------------------|
E---------------------------------------------------------|
  Love you whenever we're together, Love you when we're

E--------|
B--1-1---|
G--------|
D--------|
A--------|
E--------|
   a-part

E---------------------------------------------------------|
B-------------1-------------------------------------1-----|
G-----------------2---------0-----3---------------------2-|
D---2---3--------------3-------------------2---3----------|
A---------------------------------------------------------|
E---------------------------------------------------------|
   And when  at last    I find you,     Your song will fill

E---------------------1|-------------------------------1----|
B------1--------1------|-3----------1---------------1-------|
G----------------------|------3-0------2--------------------|
D--3-------------------|--------------------3---------------|
A----------------------|------------------------------------|
E----------------------|------------------------------------|
  the air      Play  it loud  so I can hear you,  Make it

                          easy  to be near you    For the

E-------------------1-------------------------------------|
B----3-----------1------3---------------------------------|
G---------3---0-------------3--0--------------------------|
D---------------------------------------------------------|
A---------------------------------------------------------|
E---------------------------------------------------------|
   things you do endear you to me

E---------------------------------------------------------|
B--3------------------------------------------------------|
G-------3--0----------------------------------------------|
D--------------2-3----------------------------------------|
A---------------------------------------------------------|
E---------------------------------------------------------|
  Ah, you know I will


E----1---------|
B--------------|
G--------------|
D--3-----------|
A--------------|
E--------------|
   I will


E----------------------------------------0--1--3--5---|
B-----------1--3-------------------1--3---------------|
G--3--2--3--------2--------2----3---------------------|
D--------------------0--3-----------------------------|
A-----------------------------------------------------|
E-----------------------------------------------------|
   La la la la la la la la la   La la la la la la la
Tap to rate this tab
# A B C D E F G H I J K L M N O P Q R S T U V W X Y Z