Song name
# A B C D E F G H I J K L M N O P Q R S T U V W X Y Z

Beatles - Babys In Black chords

Highlighted       Show chord diagrams
“Baby’s in Black” by the Beatles from “Beatles for Sale”

Intro e|---------------------------|
      B|2---2----------------------|
      G|----4b6r4----2-------------|
      D|-----------------4---------|
      A|----------------------0----|
      E|---------------------------|

Chorus
A        E7              D7                  E
Oh dear, what can I do? Baby's in black and I'm feeling blue,
 	 A	D	    A
Tell me, oh what can I do? 

Verse
A                      A7                 D
She thinks of him and so she dresses in black,
D  				  A	   E			A 
And though he'll never come back, she's dressed in black. 

Chorus

Verse
A                     A7                 D
I think of her, but she only thinks of him, 
D  		         A	   E			A
And though it's only a whim, she thinks of him. 

Bridge
F#m      B7
Oh how long will it take, 
D        E		
Till she sees the mistake she has made?
Solo
  A
e|---------------------------|
B|2---2----------------------|
G|----4b6r4----2-------------|
D|-----------------4---------|
A|----------------------0----|
E|---------------------------|
   E                              D                   E
e|----------------2----0----------------------------------9-------|
B|--------------------0--------------3---3/1----------------------|
G|--4b6r4--2--0h1----1--------------------------------7-8b9-r8--7-|
D|---------------------------------/4----4/2----------------------|
A|----------------------------------------------------------------|
E|----------------------------------------------------------------|
  A    D             A
e|---------------------------|
B|2---2----------------------|
G|----4b6r4----2-------------|
D|-----------------4---------|
A|----------------------0----|
E|---------------------------|

Bridge
F#m      B7
Oh how long will it take, 
D        E		
Till she sees the mistake she has made?

Chorus
A        E7              D7                  E
Oh dear, what can I do? Baby's in black and I'm feeling blue,
	 A	D	    A
Tell me, oh what can I do?

Verse
A                      A7                 D
She thinks of him and she dresses in black, 
D  				  A	   E			A
And though he'll never come back, she's dressed in black. 

Chorus
A        E7              D7                  E
Oh dear, what can I do? Baby's in black and I'm feeling blue,
	 A	D	    A
Tell me, oh what can I do?
Tap to rate this tab
# A B C D E F G H I J K L M N O P Q R S T U V W X Y Z