Song name
# A B C D E F G H I J K L M N O P Q R S T U V W X Y Z

Beatles - Im A Loser chords

Highlighted       Show chord diagrams
“I’m a Loser” by the Beatles from “Beatles for Sale”

Intro
    Am    D     Am    D
I'm a loser, I'm a loser,
 	  Am		Fmaj7	    D
And I'm not what I appear to be.

Verse
 G		D	    F		  G 
Of all the love I have won or have lost,
 G		D	    F		  G
There is one love I should never have crossed.
 G		D	    F		  G
She was a girl in a million my friend, 
 G		D	    F		  G
I should have known she would win in the end. 

Chorus
    	 Am    D        Am                 D
 	I'm a loser, and I lost someone who's near to me,
    	 G     Em       Am            Fmaj7     D                
 	I'm a loser, and I'm not what I appear to be. 

Verse
 G		D	    F		  G
Although I laugh and I act like a clown,
 G		D	    F		  G
Beneath this mask I am wearing a frown, 
 G		D	    F		  G
My tears are falling like rain from the sky, 
 G		D	    F		  G
Is it for her or myself that I cry. 

Chorus
Solo
|G		D	    F		  G | 2x

  Am                 D                 Am              D
e|---5-------5----|-7--------7-------|---5-------5----|-7--------7-------|
B|---------5------|-----7------------|---------5------|-----7------------|
G|------5---------|--------------7---|------5---------|--------------7---|
D|----------------|------------------|----------------|------------------|
  G		  Em		     Am		    F         D
e|---6------6-----|------------------|---8------5-----|5------5------5---|
B|----------------|5----5----5-------|-----------5----|6------6b7--7-----|
G|----------------|-----7b9--7b9-----|----------------|------------------|
D|----------------|------------------|----------------|------------------|

Verse
 G		D	    F		  G
What I have done to deserve such a fate, 
 G		D	    F		  G
I realize I have left it too late. 
 G		D	    F		  G
And so it's true pride comes before a fall, 
 G		D	    F		  G
I'm telling you so that you won't lose all.

Chorus
Outro repeat solo until fade
Tap to rate this tab
# A B C D E F G H I J K L M N O P Q R S T U V W X Y Z