Song name
# A B C D E F G H I J K L M N O P Q R S T U V W X Y Z

Beatles - What Youre Doing chords

Highlighted       Show chord diagrams
“What You’re Doing” by the Beatles from “Beatles for Sale

        e|--------------------------------------|
        B|--------------------------------------|
Guitar  G|-------4--2---------------------------|
Riff    D|0----4------4--2----2--0--2--4-----0--|
        A|--------------------------------------|
        E|--------------------------------------|
Verse 1
D		     G	     D	          G
Look what you're doing, I'm feeling blue and lonely,
         Bm		    G	                           D	      G 
Would it be too much to ask of you, What you're doing to me?

Verse 2 
D		     G	     D	          G
You got me running and there's no fun in it,
         Bm		    G	                           D	      G 
Why should it be so much to ask of you, What you're doing to me? 

Chorus
G			Bm
I've been waiting here for you,
G			Bm 
Wond'ring what you're gonna do,
Em						A 
Should you need a love that's true, it's me. 

Verse 3
D		     G	     D	          G
Please stop your lying, you've got me crying, girl, 
         Bm		    G	                           D	      G
Why should it be so much to ask of you,  What you're doing to me?

  D      G           D      G	    Bm	        G		   D
e|5-----5-9---7-7----5-----5-9---7-7------------------7-----7--7-------5-|
B|7-----7-10--8-8----7-----7-10--8-8----7----------------8-------8-----7-|
G|----------------------------------------7---7---7----------------7-----|
D|-----------------------------------------9-----------------------------|
A|-----------------------------------------------------------------------|
E|-----------------------------------------------------------------------|

Chorus

Verse 4
D		     G	     D	          G
Please stop your lying, you've got me crying, girl, 
         Bm		    G	                           D	      
Why should it be so much to ask of you,  What you're doing to me?
 	    G         D              G        D    G
What you're doing to me? What you're doing to me?


D   |G   |D   |G   |


Tap to rate this tab
 
# A B C D E F G H I J K L M N O P Q R S T U V W X Y Z