Song name
# A B C D E F G H I J K L M N O P Q R S T U V W X Y Z

Beatles - You Like Me Too Much chords

Highlighted       Show chord diagrams
“You Like me too Much” by The Beatles from “Help”

Verse 1
G                   Am               C                    G
Though you've gone away this morning you'll be back again tonight, 
G                   Am               C                    G
Telling me there'll be no next time if I just don't treat you right, 

Chorus
 	     Bm7				    D7
 	You'll never leave and you know it's true, 
       	    G            C             D
 	'Cause you like me too much and I like you. 

Verse 2
G                   Am               C                    G
You've tried before to leave me but you never had the nerve,
G                   Am               C                    G 
To walk out and make me lonely which is all that I deserve,

Chorus
Bridge 
G  Em7   A7          Bm7              A7        Em7      A7
I really do and it's nice when you believe me if you leave me,

Verse 3
G                   Am               C                    G 
I will follow you and bring you back where you belong
G                   Am               C                    G 
'Cause I couldn't really stand it I admit that I was wrong, 

Chorus
Solo:
  G		     G		      C			G
E|--7---6---5---3--|--7---6---5---3--|------------------|------------------|
B|-----------------|-----------------|---1---3---4---5--|------------------|
G|--7---6---5---4--|--7---6---5---4--|---2---3---4---5--|------------------|
D|-----------------|-----------------|------------------|------------------|
A|-----------------|-----------------|------------------|------------------|
E|-----------------|-----------------|------------------|------------------|
  D		     D		      D			D
E|--7---6---5---3--|--7---8---9---10-|---10--8---7---5--|------------------|
B|-----------------|-----------------|------------------|------------------|
G|--7---6---5---4--|--7---9---10--11-|---11--9---7---5--|------------------|
D|-----------------|-----------------|------------------|------------------|
A|-----------------|-----------------|------------------|------------------|
E|-----------------|-----------------|------------------|------------------| 
          G            C             D 
'Cause you like me too much and I like you

Verse 3
Chorus
          G            C             D 
'Cause you like me too much and I like you
Tap to rate this tab
 
# A B C D E F G H I J K L M N O P Q R S T U V W X Y Z