Song name
# A B C D E F G H I J K L M N O P Q R S T U V W X Y Z

Beatles - While My Guitar Gently Weeps Acoustic tab

Beatles - While My Guitar Gently Weeps
Harrison
22 November 1968
4:46
Released whith double lp The Beatles or the White album track 7
Capo on the 5th fret
tuning - EADGBe
Clean, Gain 2, Bass 4, Mid 4, Trebele 6, reverb 3, Middle pick up setting


THE TOP LINE OF CHORDS SHOW THERE TRUE PICH IF YOU DON'T HAV A CAPO

Intro-
   Gm                                                   Gm/F
  (Dm)                                                 (Dm/C)
e|-----------------------1--------------------------------------------1|
B|------3-------3-----------------------3------------------------3-----|
G|------2-------2------------------------------------------------2-----|
D|------0-------0-------------0-----------------0----------------------|
A|--------------------------------------------------------3------------|
E|---------------------------------------------------------------------|

                           C7/E                                      Eb
                          (G7/B)                                    (Bb)
e|-------------------------------------------1-------------------------|
B|----------3----------------------------------------------3-----------|
G|-----------------------------------0--------------0----------0-------|
D|-----------------------------------0--------------0----------0-------|
A|----3---------3----------2---------2--------------2----------2------1|
E|---------------------------------------------------------------------|

                                       Gm/D
                                      (Dm/A)
e|---------------------------------------1-----------------0h--1p--0---|
B|---------------3--------3--------------3----------3-----------------3|
G|---------------3--------3--------------2----------2-----------------2|
D|-----------3-------3---------3---------0----------0------------------|
A|-----------1-------1---------1---------0-----------------------------|
E|---------------------------------------------------------------------|

         Fadd9                                         Gm
        (Cadd9)                                       (Dm)              
e|--------0---------------------------------------------1--------------1|
B|--------3-----------1---------------------------------3-------3-------|
G|--------0-------------------0-------------------------2-------2-------|
D|--------2------2--------------------------------------0-------0-------|
A|--------0--------------3----------3-----------------------------------|
E|----------------------------------------------------------------------|



                            Gm/D
                           (Dm/A)
e|---------------------------1--|
B|-----------3---------------3--|
G|---------------------------2--|
D|----------------0----------0--|
A|----------------0----------0--|
E|------------------------------|






Verse



Repeat
 |.   Gm                         Gm/F                            C7/E
 |.  (Dm)                       (Dm/C)                          (G7/B)
e|-----1--------1------------------------1------------------------1-------|
B|-----3--------------3----3----------3--------3------------------------3-|
G|-----2----2------2-----2------------2------2----2-------------0----0----|
D|-----0----0------0-----0------------0------0----0-------------0----0----|
A|-----0-------------------------3----3------3----3------2------2----2----|
E|------------------------------------------------------------------------|
       I  at   You   All  see the love  there thats  sleeping



         Eb                       Gm/D                      F
        (Bb)                     (Dm/A)                    (C)
e|---------------------------------1---------------1--------0-------------|
B|-----------------3------3--------3----3-----3-------------1------------1|
G|0----------------3------3--------2----2-----2------2------0------0------|
D|0------3------3------3-----------0----0-----0------0------2---2-----2---|
A|2------1------1------1-------1---0----0-----0------0------3---3-----3---|
E|------------------------------------------------------------------------|
                    
  While My guitar gently  weeps  I look  At  the   Floor  And  I  see  it 

    At end of this line below go to beginig of verse then when u pass this again move on
          C                                   D
         (G)                                 (A)                           
e|--------3-----------3----------------------------------0-----------------|
B|--------3------3----------------3-----------2-------2----------2---------|
G|--------0------0----------------------------2-------2----------2---------|
D|--3-----0------0------------0--------0------2-------2------2-------2-----|
A|--2-----2-------------------2--------2------0-------0------0-------0-----|
E|--------3-------------------3--------3-----------------------------------|

    needs  sweeping     still my Guitar  Gentaly  weeps   
   Bb                      D                         G
  (F)                     (A)                       (D)
e|-1------1--1--1--1--1----0-----0--0--0--0--0--0----2----2--2--2--2--2----|
B|-1------1--1--1--1--1----2-----2--2--2--2--2--0----3----3--3--3--3--3----|
G|-2------2--2--2--2--2----2-----2--2--2--2--2--0----2----2--2--2--2--2----|
D|-3------3--3--3--3--3----2-----2--2--2--2--2--0----0----0--0--0--0--0----|
A|-3-----------------------0-----------------------------------------------|
E|-1-----------------------------------------------------------------------|

                            I    don't   know   why   nobody   told   you 
   
 Bm                        Em                        Bm
(F#m)                     (Bm)                      (F#m)
e|2------2--2--2--2--2------2-----2--2--2--2--2-------2-----2--2--2--2--2--|
B|2------2--2--2--2--2------3-----3--3--3--3--3-------2-----2--2--2--2--2--|
G|2------2--2--2--2--2------4-----4--4--4--4--4-------2-----2--2--2--2--2--|
D|4------4--4--4--4--4------4-----4--4--4--4--4-------4-----4--4--4--4--4--|
A|4------4--4--4--4--4------2-----2--2--2--2--2-------4-----4--4--4--4--4--|
E|2------2--2--2--2--2--------------------------------2-----2--2--2--2--2--|
            how  to  unfold  you  love           don't  know  how 
  Am                   Am7                    D                  G
 (Em)                 (Em7)                  (A)                (D)
e|0----0--0--0--0--0----0----0--0--0--0--0----0----0--0--0--0----2----2--2-|
B|0----0--0--0--0--0----3----3--3--3--3--3----2----2--2--2--2----3----3--3-|
G|0----0--0--0--0--0----0----0--0--0--0--0----2----2--2--2--2----2----2--2-|
D|2----2--2--2--2--2----2----2--2--2--2--2----2----2--2--2--2----0----0--0-|
A|2----2--2--2--2--2----2----2--2--2--2--2----0----0--0--0--0--------------|
E|0----0--0--0--0--0----0----0--0--0--0--0---------------------------------|
 
   someone    controlled   you     they    bought   and    sold    you 


      
             Bm                    Em                   Bm
            (F#m)                 (Bm)                 (F#m)
e|-2--2--2----2---2--2--2--2--2----2---2--2--2--2--2----2----2--2--2--2--2-|
B|-3--3--3----2---2--2--2--2--2----3---3--3--3--3--3----2----2--2--2--2--2-|
G|-2--2--2----2---2--2--2--2--2----4---4--4--4--4--4----2----2--2--2--2--2-|
D|-0--0--0----4---4--4--4--4--4----4---4--4--4--4--4----4----4--4--4--4--4-|
A|------------4---4--4--4--4--4----2---2--2--2--2--2----4----4--4--4--4--4-|
E|------------2---2--2--2--2--2-------------------------2----2--2--2--2--2-|


     Am                                          D                      D7
    (Em)                                        (A)                    (A7)
e|---0----0--0--0--0--0----0----0--0--0--0--0----0-----0--0--0--0--0----0--|
B|---0----0--0--0--0--0----0----0--0--0--0--0----2-----2--2--2--2--2----2--|
G|---0----0--0--0--0--0----0----0--0--0--0--0----2-----2--2--2--2--2----0--|
D|---2----2--2--2--2--2----2----2--2--2--2--2----2-----2--2--2--2--2----2--|
A|---2----2--2--2--2--2----2----2--2--2--2--2----0-----0--0--0--0--0----0--|
E|---0----0--0--0--0--0----0----0--0--0--0--0------------------------------|





  OUTRO



     Gm                         Gm/F                           C7/E
    (Dm)                       (Dm/F)                         (G7/B)
e|---1---------1------1-----------------1--------1--------1-----------1----|
B|---3------3------3-------3------------3--------3--------3-----------3----|
G|---2------2------2-------2-----2----2-----2--------2----------2---2------|
D|---0------0------0-------0-----0----0--------------0----------0---0------|
A|-------------------------------3----3--------------3----------0---0------|
E|-------------------------------------------------------------------------|


              

             Eb                            Gm/D
            (Bb)                          (Dm/A)
e|-------------------------------------------1------------0----------------|
B|---0-----------------3--------3------------3---------------------3-------|
G|---0----0------------3--------3------------2------2---------------------2|
D|--------0---3----3--------3-------3--------0------0----------------------|
A|--------2---1----1--------1-------1--------0------0----------------------|
E|-------------------------------------------------------------------------|



  
 Fadd9                           Gm/D                         Fadd9
(Cadd9)                         (Dm/A)                       (Cadd9)
e|--------------------------------1--------0-------------------------------|
B|-3-----------1------------------3-----------------3----------3----------1|
G|-0-----------0-------0----------2------2---------------2-----0----------0|
D|-2-----2-------------------2----0------0---------------------2-----2-----|
A|-3-----3------------------------0------0---------------------3-----3-----|
E|-------------------------------------------------------------------------|




              Gm                          Fadd9                 Gm/D
             (Dm)                        (Cadd9)               (Dm/A)
e|-------------1----------0--------------------------------------1---------|
B|-------------3----------------3-----------3-------1------------3---------|
G|---0---------2----2----------------2------0-------0-----0------2----2----|
D|-------2-----0----0-----------------------2----2-----------2---0----0----|
A|-------------0----0-----------------------3----3---------------0----0----|
E|-------------------------------------------------------------------------|



                  Fadd9                     Gm
                 (Cadd9)                   (Dm)
e|-0-----------------------------------------1|
B|-------3----------3---------1--------------3|
G|------------2-----0---------0--------------2|
D|------------------2----2-------------------0|
A|------------------3----3--------------------|
E|--------------------------------------------|






OTHER  VERSES    ( lyrics above is verse one and propbley not in rite place)



I look at the world and I notice it's turning 
While my guitar gently weeps 
With every mistake we must surely be learning 
Still my guitar gently weeps 

I don't know how you were diverted 
you were perverted too 
I don't know how you were inverted 
no one alerted you 

I look at you all see the love there that's sleeping 
While my guitar gently weeps 
I look at you all 
Still my guitar gently weeps 

Oh, oh, oh 
oh oh oh oh oh oh oh 
oh oh, oh oh, oh oh 
Yeah yeah yeah yeah 
yeah yeah yeah yeah 


Ty For looking please rate
Tap to rate this tab
 
# A B C D E F G H I J K L M N O P Q R S T U V W X Y Z