Song name
# A B C D E F G H I J K L M N O P Q R S T U V W X Y Z

Beatles - To Know Her Is To Love Her tab

   ---------------------------------------------------------------

    THE BEATLES  TO KNOW HER IS TO LOVE HER (Phil Spector) From
                  LIVE AT THE BBC album. Released on 1994.

   ---------------------------------------------------------------





   To know, know, know her
   Is to love, love, love her
   Just to see her smile
   Makes my life worthwhile
   Yes, just to know, know, know her
   Is to love, love, love her
   And I do (and I do) and I do (and I do)
   And I do (and I do and I da da da da da da)

   I'll be good to her
   I'll make love to her
   Everyone says there'll come a day
   When I walk alongside of her
   Yes, just to know, know, know her
   Is to love, love, love her
   And I do (and I do) and I do (and I do)
   And I and I do and I and I do and I

   Why can't she see?
   How blind can she be?
   Some day, she'll see
   That she was meant just for me, oh, oh yeah

   To know, know, know her
   Is to love, love, love her
   Just to see her smile
   Makes my life worthwhile
   Yes, just to know, know, know her
   Is to love, love, love her
   And I do (and I do) and I do (and I do)
   And I and I do and I and I do and I

   Why can't she see?
   How blind can she be?
   Some day, she'll see
   That she was meant just for me, oh, oh yeah

   To know, know, know her
   Is to love, love, love her
   Just to see her smile
   Makes my life worthwhile
   Yes, just to know, know, know her
   Is to love, love, love her
   And I do (and I do) and I do and I do and I do





     INTRO


   e|-------------------------------|-------------------------------|
   B|-------------------------------|-------------------------------|
   G|-------------------------------|-------------------------------|
   D|-------------------------------|-------------------------------|
   A|-------------------------------|-2----4----2-------------------|
   E|-------------------------------|----------------5----4----2----|
                                                               To




     VERSE

      E
   e|-0--------------0---------0----|-0---------0----0----0---------|
   B|-0--------------0---------0----|-0---------0----0----0---------|
   G|-1--------------1---------1----|-1---------1----1----1---------|
   D|-2--------------2---------2----|-2---------2----2----2---------|
   A|-2--------------2---------2----|-2---------2----2----2---------|
   E|-0--------------0---------0----|-0---------0----0----0---------|
      know,          know,            know      her       is   to



      B
   e|-2--------------2---------2----|-2--------------2----2----2----|
   B|-4--------------4---------4----|-4--------------4----4----4----|
   G|-4--------------4---------4----|-4--------------4----4----4----|
   D|-4--------------4---------4----|-4--------------4----4----4----|
   A|-2--------------2---------2----|-2--------------2----2----2----|
   E|-------------------------------|-------------------------------|
      love,          love,            love      her



      C#m
   e|-4---------4----4---------4----|-4---------4----4----4----4----|
   B|-5---------5----5---------5----|-5---------5----5----5----5----|
   G|-6---------6----6---------6----|-6---------6----6----6----6----|
   D|-6---------6----6---------6----|-6---------6----6----6----6----|
   A|-4---------4----4---------4----|-4---------4----4----4----4----|
   E|-------------------------------|-------------------------------|
                     Just      to     see  her  smile



      A
   e|-0--------------0--------------|-0---------0----0----0---------|
   B|-2--------------2--------------|-2---------2----2----2---------|
   G|-2--------------2--------------|-2---------2----2----2---------|
   D|-2--------------2--------------|-2---------2----2----2---------|
   A|-0--------------0--------------|-0---------0----0----0---------|
   E|-------------------------------|-------------------------------|
      makes          my               life worthwhile     just to
                                                     yes



      E
   e|-0---------0----0---------0----|-0---------0----0----0----0----|
   B|-0---------0----0---------0----|-0---------0----0----0----0----|
   G|-1---------1----1---------1----|-1---------1----1----1----1----|
   D|-2---------2----2---------2----|-2---------2----2----2----2----|
   A|-2---------2----2---------2----|-2---------2----2----2----2----|
   E|-0---------0----0---------0----|-0---------0----0----0----0----|
      know,          know,            know      her       is   to



      B
   e|-2---------2----2---------2----|-2--------------2--------------|
   B|-4---------4----4---------4----|-4--------------4--------------|
   G|-4---------4----4---------4----|-4---------4----4--------------|
   D|-4---------4----4---------4----|-4---------4----4--------------|
   A|-2---------2----2---------2----|-2---------2----2--------------|
   E|-------------------------------|-------------------------------|
      love,          love,            love      her       and  I



      E                               A
   e|-0---------0----0----0---------|-0---------0----0----0----0----|
   B|-0---------0----0----0---------|-2---------2----2----2----2----|
   G|-1---------1----1----1---------|-2---------2----2----2----2----|
   D|-2---------2----2----2---------|-2---------2----2----2----2----|
   A|-2---------2----2----2---------|-0---------0----0----0----0----|
   E|-0---------0----0----0---------|-------------------------------|
      do                  and  I      do                  and  I
          (and  I    do   and  I)         (and  I    do   and  I)



      E                               B
   e|-0---------0----0---------0----|-2---------2----2---------2----|
   B|-0---------0----0---------0----|-4---------4----4---------4----|
   G|-1---------1----1---------1----|-4---------4----4---------4----|
   D|-2---------2----2---------2----|-4---------4----4---------4----|
   A|-2---------2----2---------2----|-2---------2----2---------2----|
   E|-0---------0----0---------0----|-------------------------------|
      do
          (and  I    do   and  I      da   da   da   da   da   da)




     VERSE

      E
   e|-0--------------0---------0----|-0--------------0----0----0----|
   B|-0--------------0---------0----|-0--------------0----0----0----|
   G|-1--------------1---------1----|-1--------------1----1----1----|
   D|-2--------------2---------2----|-2--------------2----2----2----|
   A|-2--------------2---------2----|-2--------------2----2----2----|
   E|-0--------------0---------0----|-0--------------0----0----0----|
      I'll           be               good to   her



      B
   e|-2--------------2--------------|-2--------------2----2---------|
   B|-4--------------4--------------|-4--------------4----4---------|
   G|-4--------------4--------------|-4--------------4----4----4----|
   D|-4--------------4--------------|-4--------------4----4----4----|
   A|-2--------------2--------------|-2--------------2----2----2----|
   E|-------------------------------|-------------------------------|
      I'll           make             love to   her



      C#m
   e|-4---------4----4---------4----|-4--------------4----4----4----|
   B|-5---------5----5---------5----|-5--------------5----5----5----|
   G|-6---------6----6---------6----|-6--------------6----6----6----|
   D|-6---------6----6---------6----|-6--------------6----6----6----|
   A|-4---------4----4---------4----|-4--------------4----4----4----|
   E|-------------------------------|-------------------------------|
      everyone       says      there'll    a    day            when
                                      come



      A
   e|-0---------0----0---------0----|-0---------0----0----0---------|
   B|-2---------2----2---------2----|-2---------2----2----2---------|
   G|-2---------2----2---------2----|-2---------2----2----2---------|
   D|-2---------2----2---------2----|-2---------2----2----2---------|
   A|-0---------0----0---------0----|-0---------0----0----0---------|
   E|-------------------------------|-------------------------------|
      I              walk alongside        of   her  yes  just to



      E
   e|-0---------0----0---------0----|-0--------------0----0----0----|
   B|-0---------0----0---------0----|-0--------------0----0----0----|
   G|-1---------1----1---------1----|-1--------------1----1----1----|
   D|-2---------2----2---------2----|-2--------------2----2----2----|
   A|-2---------2----2---------2----|-2--------------2----2----2----|
   E|-0---------0----0---------0----|-0--------------0----0----0----|
      know,          know,            know      her       is   to



      B
   e|-2---------2----2---------2----|-2---------2----2--------------|
   B|-4---------4----4---------4----|-4---------4----4--------------|
   G|-4---------4----4---------4----|-4---------4----4--------------|
   D|-4---------4----4---------4----|-4---------4----4--------------|
   A|-2---------2----2---------2----|-2---------2----2--------------|
   E|-------------------------------|-------------------------------|
      love,          love,            love      her       and  I



      E                               A
   e|-0----0----0----0----0----0----|-0----0----0----0----0----0----|
   B|-0----0----0----0----0----0----|-2----2----2----2----2----2----|
   G|-1----1----1----1----1----1----|-2----2----2----2----2----2----|
   D|-2----2----2----2----2----2----|-2----2----2----2----2----2----|
   A|-2----2----2----2----2----2----|-0----0----0----0----0----0----|
   E|-0----0----0----0----0----0----|-------------------------------|
      do                  and  I      do
          (and  I    do   and  I)         (and  I    do   and  I)



      E
   e|-0----0----0----0----0----0----|-0----0----0----0----0----0----|
   B|-0----0----0----0----0----0----|-0----0----0----0----0----0----|
   G|-1----1----1----1----1----1----|-1----1----1----1----1----1----|
   D|-2----2----2----2----2----2----|-2----2----2----2----2----2----|
   A|-2----2----2----2----2----2----|-2----2----2----2----2----2----|
   E|-0----0----0----0----0----0----|-0----0----0----0----0----0----|
           and  I    do   and  I           and  I    do   and  I
          (and  I    do   and  I           and  I    do   and  I)




     BRIDGE

      G
   e|-3--------------3--------------|-3---------3----3--------------|
   B|-3--------------3--------------|-3---------3----3--------------|
   G|-4--------------4--------------|-4---------4----4--------------|
   D|-5--------------5--------------|-5---------5----5--------------|
   A|-5--------------5--------------|-5---------5----5--------------|
   E|-3--------------3--------------|-3---------3----3--------------|
      Why                                            can't     she
     (Why



      D
   e|-2---------2----2--------------|-2----2----2----2----2---------|
   B|-3---------3----3--------------|-3----3----3----3----3---------|
   G|-2---------2----2--------------|-2----2----2----2----2---------|
   D|-0---------0----0--------------|-0----0----0----0----0---------|
   A|-------------------------------|-------------------------------|
   E|-------------------------------|-------------------------------|
      see?                                                     how
           da   da        da   da          da   da        da   da)



      C
   e|------0----0--------------0----|-0--------------0----0---------|
   B|------1----1--------------1----|-1--------------1----1---------|
   G|------0----0--------------0----|-0--------------0----0---------|
   D|------2----2--------------2----|-2--------------2----2---------|
   A|------3----3--------------3----|-3--------------3----3---------|
   E|-------------------------------|-------------------------------|
      blind                                               can  she
          (da   da        da   da          da   da        da   da)



      B
   e|-2----2----2----2--------------|-2----2----2----2----2----2----|
   B|-4----4----4----4--------------|-4----4----4----4----4----4----|
   G|-4----4----4----4---------4----|-4----4----4----4----4----4----|
   D|-4----4----4----4---------4----|-4----4----4----4----4----4----|
   A|-2----2----2----2---------2----|-2----2----2----2----2----2----|
   E|-------------------------------|-------------------------------|
      be
          (da   da        da   da          da   da        da   da)



      G                               E
   e|-3----3----3--------------3----|-0----0---------0----0---------|
   B|-3----3----3--------------3----|-0----0---------0----0---------|
   G|-4----4----4--------------4----|-1----1---------1----1---------|
   D|-5----5----5--------------5----|-2----2---------2----2---------|
   A|-5----5----5--------------5----|-2----2---------2----2---------|
   E|-3----3----3--------------3----|-0----0---------0----0---------|
      Some                            day            she'll
          (da   da        da   da          da   da        da   da)



      C                               B
   e|-0----0----0----0---------0----|-2----2----2----2----2----2----|
   B|-1----1----1----1---------1----|-4----4----4----4----4----4----|
   G|-0----0----0----0---------0----|-4----4----4----4----4----4----|
   D|-2----2----2----2---------2----|-4----4----4----4----4----4----|
   A|-3----3----3----3---------3----|-2----2----2----2----2----2----|
   E|-------------------------------|-------------------------------|
      see                                                      that
          (da   da        da   da          da   da        da   da)



      F#
   e|------2----2----2----2----2----|-2----2----2----2----2----2----|
   B|------2----2----2----2----2----|-2----2----2----2----2----2----|
   G|------3----3----3----3----3----|-3----3----3----3----3----3----|
   D|------4----4----4----4----4----|-4----4----4----4----4----4----|
   A|------4----4----4----4----4----|-4----4----4----4----4----4----|
   E|------2----2----2----2----2----|-2----2----2----2----2----2----|
      she                      was    meant     just           for
          (da   da        da   da          da   da        da   da)



      B
   e|-2----2----2----2----2----2----|-2----2----2----2----2----2----|
   B|-4----4----4----4----4----4----|-4----4----4----4----4----4----|
   G|-4----4----4----4----4----4----|-4----4----4----4----4----4----|
   D|-4----4----4----4----4----4----|-4----4----4----4----4----4----|
   A|-2----2----2----2----2----2----|-2----2----2----2----2----2----|
   E|-------------------------------|-------------------------------|
      me                       oh,    oh             yeah      To
          (da   da        da   da          da   da   da   da   da)




     VERSE

      E
   e|-0--------------0---------0----|-0---------0----0--------------|
   B|-0--------------0---------0----|-0---------0----0--------------|
   G|-1--------------1---------1----|-1---------1----1--------------|
   D|-2--------------2---------2----|-2---------2----2--------------|
   A|-2--------------2---------2----|-2---------2----2--------------|
   E|-0--------------0---------0----|-0---------0----0--------------|
      know,          know,            know      her       is   to



      B
   e|-2--------------2--------------|-2---------2----2--------------|
   B|-4--------------4--------------|-4---------4----4--------------|
   G|-4--------------4--------------|-4---------4----4--------------|
   D|-4--------------4--------------|-4---------4----4--------------|
   A|-2--------------2--------------|-2---------2----2--------------|
   E|-------------------------------|-------------------------------|
      love,          love,            love      her



      C#m
   e|-4---------4----4---------4----|-4---------4----4----4----4----|
   B|-5---------5----5---------5----|-5---------5----5----5----5----|
   G|-6---------6----6---------6----|-6---------6----6----6----6----|
   D|-6---------6----6---------6----|-6---------6----6----6----6----|
   A|-4---------4----4---------4----|-4---------4----4----4----4----|
   E|-------------------------------|-------------------------------|
      Just           to               see  her  smile



      A
   e|-0--------------0---------0----|-0---------0----0----0---------|
   B|-2--------------2---------2----|-2---------2----2----2---------|
   G|-2--------------2---------2----|-2---------2----2----2---------|
   D|-2--------------2---------2----|-2---------2----2----2---------|
   A|-0--------------0---------0----|-0---------0----0----0---------|
   E|-------------------------------|-------------------------------|
      makes          my               life worthwhile     just to
                                                     yes



      E
   e|-0---------0----0---------0----|-0---------0----0----0---------|
   B|-0---------0----0---------0----|-0---------0----0----0---------|
   G|-1---------1----1---------1----|-1---------1----1----1---------|
   D|-2---------2----2---------2----|-2---------2----2----2---------|
   A|-2---------2----2---------2----|-2---------2----2----2---------|
   E|-0---------0----0---------0----|-0---------0----0----0---------|
      know,          know,            know      her       is   to



      B
   e|-2---------2----2---------2----|-2----2----2----2----2----2----|
   B|-4---------4----4---------4----|-4----4----4----4----4----4----|
   G|-4---------4----4---------4----|-4----4----4----4----4----4----|
   D|-4---------4----4---------4----|-4----4----4----4----4----4----|
   A|-2---------2----2---------2----|-2----2----2----2----2----2----|
   E|-------------------------------|-------------------------------|
      love,          love,            love      her       and  I



      E                               A
   e|-0----0----0----0----0----0----|-0----0----0----0----0----0----|
   B|-0----0----0----0----0----0----|-2----2----2----2----2----2----|
   G|-1----1----1----1----1----1----|-2----2----2----2----2----2----|
   D|-2----2----2----2----2----2----|-2----2----2----2----2----2----|
   A|-2----2----2----2----2----2----|-0----0----0----0----0----0----|
   E|-0----0----0----0----0----0----|-------------------------------|
      do   and  I    do   and  I           and  I    do   and  I
          (and  I    do   and  I)         (and  I    do   and  I)



      E
   e|-0----0----0----0----0----0----|-0----0----0----0----0----0----|
   B|-0----0----0----0----0----0----|-0----0----0----0----0----0----|
   G|-1----1----1----1----1----1----|-1----1----1----1----1----1----|
   D|-2----2----2----2----2----2----|-2----2----2----2----2----2----|
   A|-2----2----2----2----2----2----|-2----2----2----2----2----2----|
   E|-0----0----0----0----0----0----|-0----0----0----0----0----0----|
           and  I    do   and  I           and  I    do   and  I
          (and  I    do   and  I           and  I    do   and  I)




     BRIDGE

      G
   e|-3--------------3---------3----|-3---------3----3----3---------|
   B|-3--------------3---------3----|-3---------3----3----3---------|
   G|-4--------------4---------4----|-4---------4----4----4---------|
   D|-5--------------5---------5----|-5---------5----5----5---------|
   A|-5--------------5---------5----|-5---------5----5----5---------|
   E|-3--------------3---------3----|-3---------3----3----3---------|
      Why                                            can't     she
     (Why



      D
   e|-2---------2----2----2----2----|-2----2----2----2----2----2----|
   B|-3---------3----3----3----3----|-3----3----3----3----3----3----|
   G|-2---------2----2----2----2----|-2----2----2----2----2----2----|
   D|-0---------0----0----0----0----|-0----0----0----0----0----0----|
   A|-------------------------------|-------------------------------|
   E|-------------------------------|-------------------------------|
      see?
           da   da        da   da          da   da        da   da)



      C
   e|-0---------0----0---------0----|-0---------0----0----0---------|
   B|-1---------1----1---------1----|-1---------1----1----1---------|
   G|-0---------0----0---------0----|-0---------0----0----0---------|
   D|-2---------2----2---------2----|-2---------2----2----2---------|
   A|-3---------3----3---------3----|-3---------3----3----3---------|
   E|-------------------------------|-------------------------------|
                     how                             blind     she
                                                          can
          (da   da        da   da          da   da        da   da)



      B
   e|-2----2----2----2----2----2----|-2----2----2----2----2----2----|
   B|-4----4----4----4----4----4----|-4----4----4----4----4----4----|
   G|-4----4----4----4----4----4----|-4----4----4----4----4----4----|
   D|-4----4----4----4----4----4----|-4----4----4----4----4----4----|
   A|-2----2----2----2----2----2----|-2----2----2----2----2----2----|
   E|-------------------------------|-------------------------------|
      be
          (da   da        da   da          da   da        da   da)



      G                               E
   e|-3---------3----3---------3----|-0---------0----0----0---------|
   B|-3---------3----3---------3----|-0---------0----0----0---------|
   G|-4---------4----4---------4----|-1---------1----1----1---------|
   D|-5---------5----5---------5----|-2---------2----2----2---------|
   A|-5---------5----5---------5----|-2---------2----2----2---------|
   E|-3---------3----3---------3----|-0---------0----0----0---------|
      Some                            day            she'll
          (da   da        da   da          da   da        da   da)



      C                               B
   e|-0---------0----0----0----0----|-2----2----2----2----2---------|
   B|-1---------1----1----1----1----|-4----4----4----4----4---------|
   G|-0---------0----0----0----0----|-4----4----4----4----4---------|
   D|-2---------2----2----2----2----|-4----4----4----4----4---------|
   A|-3---------3----3----3----3----|-2----2----2----2----2---------|
   E|-------------------------------|-------------------------------|
      see                                                      that
          (da   da        da   da          da   da        da   da)



      F#
   e|------2----2----2----2----2----|-2----2----2----2----2----2----|
   B|------2----2----2----2----2----|-2----2----2----2----2----2----|
   G|------3----3----3----3----3----|-3----3----3----3----3----3----|
   D|------4----4----4----4----4----|-4----4----4----4----4----4----|
   A|------4----4----4----4----4----|-4----4----4----4----4----4----|
   E|------2----2----2----2----2----|-2----2----2----2----2----2----|
      she                      was    meant     just           for
          (da   da        da   da          da   da        da   da)



      B
   e|-2----2----2----2----2----2----|-2----2----2----2----2----2----|
   B|-4----4----4----4----4----4----|-4----4----4----4----4----4----|
   G|-4----4----4----4----4----4----|-4----4----4----4----4----4----|
   D|-4----4----4----4----4----4----|-4----4----4----4----4----4----|
   A|-2----2----2----2----2----2----|-2----2----2----2----2----2----|
   E|-------------------------------|-------------------------------|
      me                       oh,    oh             yeah      To
          (da   da        da   da          da   da   da   da   da)




     VERSE

      E
   e|-0-----------------------------|-0---------0----0--------------|
   B|-0-----------------------------|-0---------0----0--------------|
   G|-1-----------------------------|-1---------1----1--------------|
   D|-2-----------------------------|-2---------2----2--------------|
   A|-2-----------------------------|-2---------2----2--------------|
   E|-0-----------------------------|-0---------0----0--------------|
      know,          know,            know      her       is   to



      B
   e|-2--------------2---------2----|-2--------------2---------2----|
   B|-4--------------4---------4----|-4--------------4---------4----|
   G|-4--------------4---------4----|-4--------------4----4----4----|
   D|-4--------------4---------4----|-4--------------4----4----4----|
   A|-2--------------2---------2----|-2--------------2----2----2----|
   E|-------------------------------|-------------------------------|
      love,          love,            love      her



      C#m
   e|-4--------------4---------4----|-4---------4----4----4---------|
   B|-5--------------5---------5----|-5---------5----5----5---------|
   G|-6--------------6---------6----|-6---------6----6----6---------|
   D|-6--------------6---------6----|-6---------6----6----6---------|
   A|-4--------------4---------4----|-4---------4----4----4---------|
   E|-------------------------------|-------------------------------|
      Just           to               see  her  smile



      A
   e|-0--------------0---------0----|-0---------0----0----0---------|
   B|-2--------------2---------2----|-2---------2----2----2---------|
   G|-2--------------2---------2----|-2---------2----2----2---------|
   D|-2--------------2---------2----|-2---------2----2----2---------|
   A|-0--------------0---------0----|-0---------0----0----0---------|
   E|-------------------------------|-------------------------------|
      makes          my               life worthwhile     just to
                                                     yes



      E
   e|-0---------0----0---------0----|-0---------0----0----0----0----|
   B|-0---------0----0---------0----|-0---------0----0----0----0----|
   G|-1---------1----1---------1----|-1---------1----1----1----1----|
   D|-2---------2----2---------2----|-2---------2----2----2----2----|
   A|-2---------2----2---------2----|-2---------2----2----2----2----|
   E|-0---------0----0---------0----|-0---------0----0----0----0----|
      know,          know,            know      her       is   to



      B
   e|-2---------2----2---------2----|-2---------2----2---------2----|
   B|-4---------4----4---------4----|-4---------4----4---------4----|
   G|-4---------4----4---------4----|-4---------4----4---------4----|
   D|-4---------4----4---------4----|-4---------4----4---------4----|
   A|-2---------2----2---------2----|-2---------2----2---------2----|
   E|-------------------------------|-------------------------------|
      love,          love,            love      her       and  I



      E                               A
   e|-0----0----0----0----0----0----|-0----0----0----0----0----0----|
   B|-0----0----0----0----0----0----|-2----2----2----2----2----2----|
   G|-1----1----1----1----1----1----|-2----2----2----2----2----2----|
   D|-2----2----2----2----2----2----|-2----2----2----2----2----2----|
   A|-2----2----2----2----2----2----|-0----0----0----0----0----0----|
   E|-0----0----0----0----0----0----|-------------------------------|
      do                  and  I      do   and  I    do   and  I
          (and  I    do   and  I)         (and  I    do   and  I



      E
   e|-0-----------------------------|-------------------------------|
   B|-0-----------------------------|-------------------------------|
   G|-1-----------------------------|-------------------------------|
   D|-2-----------------------------|-------------------------------|
   A|-2-----------------------------|-------------------------------|
   E|-0-----------------------------|-------------------------------|
      do
      do)
Tap to rate this tab
 
# A B C D E F G H I J K L M N O P Q R S T U V W X Y Z