Song name
# A B C D E F G H I J K L M N O P Q R S T U V W X Y Z

Beatles - Within You Without You tab

Within You / Without You

 
We were talking-about the space between us all
And the people-who hide themselves behind a wall of illusion
Never glimpse the truth-then it's far too late-when they pass away.
We were talking-about the love we all could share-when we find it
To try our best to hold it there-with our love
With our love-we could save the world-if they only knew.
Try to realize it's all within yourself
No-one else can make you change
And to see you're really only very small,
And life flows ON within you and without you.


 

E-------------------------------------------------------------------------|
B---6-7-9--12~~~-------12-11---6-9-4-9-7--6~------6-7-9--12~~~------12-11-|
G-------------------------------------------------------------------------|
D-------------------------------------------------------------------------|
A-------------------------------------------------------------------------|
E-------------------------------------------------------------------------|

E-------------------------------------------------------------------------|
B---6-9-4-9-7-6~~~---6-7-9--6---6-7-/-11-9-11~~~---6-7-9--12-14~~~~~------|
G-------------------------------------------------------------------------|
D-------------------------------------------------------------------------|
A-------------------------------------------------------------------------|
E-------------------------------------------------------------------------|

E-------------------------------------------------------------------------|
B---9-14-12-9-7/6/7/6--7/9-6----------------------------------------------|
G-------------------------------------------------------------------------|
D-------------------------------------------------------------------------|
A-------------------------------------------------------------------------|
E-------------------------------------------------------------------------|

E--------------------------------------------------------------------------|
B--6-7-9--12~~--12-11--6-9-4-9-7--6~----6-7-9--12~~~--12-11--6-9-4-9-7--6~-|
G--------------------------------------------------------------------------|
D--------------------------------------------------------------------------|
A--------------------------------------------------------------------------|
E--------------------------------------------------------------------------|

E-------------------------------------------------------12-14/12/14-12/14~-|
B----6-7--9---6-7--9--12~--6-7--9--12-12/14~~---9-12-14--------------------|
G--------------------------------------------------------------------------|
D--------------------------------------------------------------------------|
A--------------------------------------------------------------------------|
E--------------------------------------------------------------------------|

E---14-12------------------------------------------------------------------|
B----------14-12~-9-12~-9---12~--------------------------------------------|
G----------------~---~-----------------------------------------------------|
D--------------------------------------------------------------------------|
A--------------------------------------------------------------------------|
E--------------------------------------------------------------------------|

E---------------------------------------------------------------------------|
B9--11--12-11-14--11--12--7--11--9--6-9--7--4-9--7--6------------------|
G---------------------------------------------------------------------------|
D---------------------------------------------------------------------------|
A---------------------------------------------------------------------------|
E---------------------------------------------------------------------------|

E--------------------------------------------------------------------------|
B---9-11-12--11--14--11--12--7--11-9--6----12-11--7--11-9--6---9-7-6-4--|
G--------------------------------------------------------------------------|
D--------------------------------------------------------------------------|
A--------------------------------------------------------------------------|
E--------------------------------------------------------------------------|
Tap to rate this tab
# A B C D E F G H I J K L M N O P Q R S T U V W X Y Z