Song name
# A B C D E F G H I J K L M N O P Q R S T U V W X Y Z

Beatles - Im In Love tab

  ------------------------------------------------------------------

   BILLY J. KRAMER & THE DAKOTAS - I'M IN LOVE (J Lennon) Recorded
                                   in October 1963.

  ------------------------------------------------------------------





   I'm in love
   I'm in love
   Believe me when I tell you
   I'm in love with you

   You're my kind of girl
   You make me feel proud
   You make me wanna shout aloud
   So I'm telling all my friends
   I'm in love

   Ev'ry night I can't sleep
   Thinking of you
   And ev'ry little thing that you do
   Yes, I'm telling all my friends
   I'm in love

   Yes I'm feeling on the top of the world
   I'm in love with a wonderful girl
   I never felt so good before
   If this is love give me more, more, more, more, oh

   Ev'ry night I can't sleep
   Thinking of you
   And ev'ry little thing that you do
   Yes, I'm telling all my friends
   I'm in love

     GUITAR SOLO

   Yes I'm feeling on the top of the world
   I'm in love with a wonderful girl
   I never felt so good before
   If this is love give me more, more, more, more, oh

   Ev'ry night I can't sleep
   Thinking of you
   And ev'ry little thing that you do
   Yes, I'm telling all my friends
   I'm in love
   I'm in love
   Yes, I'm telling all my friends
   I'm in love





     INTRO


     Cm                                B+
  e|---------------------------------|---------------------------------|
  B|---------------------4-----------|---------------------------------|
  G|-5-------5---3---5---------------|---------------------------------|
  D|---------------------------------|---------------------------------|
  A|---------------------------------|---------------------------------|
  E|---------------------------------|---------------------------------|
                                       I'm in      love
  e|-3-------3---3-------3---3-------|-3-----------3-------3---3-------|
  B|-4-------4---4-------4---4-------|-4-----------4-------4---4-------|
  G|-5-------5---5-------5---5-------|-4-----------4-------4---4-------|
  D|-5-------5---5-------5---5-------|-5-----------5-------5---5-------|
  A|-3-------3---3-------3---3-------|---------------------------------|
  E|---------------------------------|---------------------------------|





     Eb6                               F7
  e|---------------------------------|---------------------------------|
  B|---------------------4-----------|---------------------------------|
  G|-5-------5---3---5---------------|---------------------------------|
  D|---------------------------------|---------------------------------|
  A|---------------------------------|---------------------------------|
  E|---------------------------------|---------------------------------|
                                       I'm in      love            Believe
  e|-3---3-------3-------3---3-------|-1-----------1-------------------|
  B|-4---4-------4-------4---4-------|-1-----------1-----------1-------|
  G|-3---3-------3-------3---3-------|-2-----------2-----------2-------|
  D|-5---5-------5-------5---5-------|-1-----------1-----------1-------|
  A|-3---3-------3-------3---3-------|-3-----------3-----------3-------|
  E|---------------------------------|-1-----------1-----------1-------|




     G#                                G#m
  e|-4-------------------------------|-4---------------4---------------|
  B|-4-------------------------------|-4---------------4---------------|
  G|-5-------------------------------|-4---------------4---------------|
  D|-6-------------------------------|-6---------------6---------------|
  A|-6-------------------------------|-6---------------6---------------|
  E|-4-------------------------------|-4---------------4---------------|
         me  when I  tell you          I'm in          love    with
  e|-4-------4-------4---4---4---4---|-4-------4-------4---4---4-------|
  B|-4-------4-------4---4---4---4---|-4-------4-------4---4---4-------|
  G|-5-------5-------5---5---5---5---|-4-------4-------4---4---4-------|
  D|-6-------6-------6---6---6---6---|-6-------6-------6---6---6-------|
  A|-6-------6-------6---6---6---6---|-6-------6-------6---6---6-------|
  E|-4-------4-------4---4---4---4---|-4-------4-------4---4---4-------|




     Eb
  e|---------------------------------|---------------------------------|
  B|-8-------------------------------|---------------------------------|
  G|-8-------------------------------|---------------------------------|
  D|-8-------------------------------|---------------------------------|
  A|-6-------------------------------|---------------------------------|
  E|---------------------------------|---------------------------------|
     you                                           You're   kind of
                                                       my
  e|-3-------3-------3---3---3-------|-3-------------------------------|
  B|-4-------4-------4---4---4-------|-4-------------------------------|
  G|-3-------3-------3---3---3-------|-3-------------------------------|
  D|-5-------5-------5---5---5-------|-5-------------------------------|
  A|---------------------------------|---------------------------------|
  E|---------------------------------|---------------------------------|





     VERSE
     00:15

     Cm                                B+
  e|---------------------------------|---------------------------------|
  B|---------------------------------|-----------------3---------------|
  G|-----------------5---------------|-4-------------------------------|
  D|---------------------------------|---------------------------------|
  A|---------------------------------|---------------------------------|
  E|---------------------------------|---------------------------------|
     girl                                          you make     feel
                                                           me
  e|-3-------3---3---3---3---3-------|-3-------3---3---3---3-----------|
  B|-4-------4---4---4---4---4-------|-4-------4---4---4---4-----------|
  G|-5-------5---5---5---5---5-------|-4-------4---4---4---4-----------|
  D|-5-------5---5---5---5---5-------|-5-------5---5---5---5-----------|
  A|-3-------3---3---3---3---3-------|---------------------------------|
  E|---------------------------------|---------------------------------|




     G#6                               Bb
  e|---------------------------------|---------------------------------|
  B|-----------------4---------------|-----------------6---------------|
  G|-5-------------------------------|-7-------------------------------|
  D|---------------------------------|---------------------------------|
  A|---------------------------------|---------------------------------|
  E|---------------------------------|---------------------------------|
     proud                                         you make    wanna
                                                           me
  e|-4-------4---4---4---4---4-------|-1---1-------1---1---1---1-------|
  B|-6-------6---6---6---6---6-------|-3---3-------3---3---3---3-------|
  G|-5-------5---5---5---5---5-------|-3---3-------3---3---3---3-------|
  D|-6-------6---6---6---6---6-------|-3---3-------3---3---3---3-------|
  A|---------------------------------|-1---1-------1---1---1---1-------|
  E|---------------------------------|---------------------------------|




     Cm
  e|---------------------------------|---------------------------------|
  B|-4-------4-------3---4-----------|---------------------------------|
  G|---------------------------------|---------------------------------|
  D|---------------------------------|---------------------------------|
  A|---------------------------------|---------------------------------|
  E|---------------------------------|---------------------------------|
     shout   aloud                                             so  I'm
  e|-3---3---3---3---3---3---3---3---|-3---3---3---3---3---3---3---3---|
  B|-4---4---4---4---4---4---4---4---|-4---4---4---4---4---4---4---4---|
  G|-5---5---5---5---5---5---5---5---|-5---5---5---5---5---5---5---5---|
  D|-5---5---5---5---5---5---5---5---|-5---5---5---5---5---5---5---5---|
  A|-3---3---3---3---3---3---3---3---|-3---3---3---3---3---3---3---3---|
  E|---------------------------------|---------------------------------|




     G#                                Bb
  e|---------------------------------|-6-----------------------6-------|
  B|---------------------------------|-6-----------6-----------6-------|
  G|-5-------------------------------|-7-----------7-----------7-------|
  D|-6-------------------------------|-8-----------8-----------8-------|
  A|-6-------------------------------|-8-----------8-----------8-------|
  E|-4-------------------------------|-6-----------6-----------6-------|
     telling all my  friends                                   I'm in
  e|-4-------4---4---4---4---4-------|-1-------1-------1---1---1---1---|
  B|-4-------4---4---4---4---4-------|-3-------3-------3---3---3---3---|
  G|-5-------5---5---5---5---5-------|-3-------3-------3---3---3---3---|
  D|-6-------6---6---6---6---6-------|-3-------3-------3---3---3---3---|
  A|-6-------6---6---6---6---6-------|-1-------1-------1---1---1---1---|
  E|-4-------4---4---4---4---4-------|---------------------------------|




     Eb
  e|---------------------------------|---------------------------------|
  B|-8-------------------------------|---------------------------------|
  G|-8-------------------------------|---------------------------------|
  D|-8-------------------------------|---------------------------------|
  A|-6-------------------------------|---------------------------------|
  E|---------------------------------|---------------------------------|
     love                                      Ev'ry   night I   can't
  e|-3-------3-------3---3---3-------|-3-------------------------------|
  B|-4-------4-------4---4---4-------|-4-------------------------------|
  G|-3-------3-------3---3---3-------|-3-------------------------------|
  D|-5-------5-------5---5---5-------|-5-------------------------------|
  A|---------------------------------|---------------------------------|
  E|---------------------------------|---------------------------------|





     VERSE
     00:32

     Cm                                B+
  e|---------------------------------|---------------------------------|
  B|---------------------------------|---------------------------------|
  G|-----------------5---------------|-4-------------------------------|
  D|---------------------------------|---------------------------------|
  A|---------------------------------|---------------------------------|
  E|---------------------------------|---------------------------------|
     sleep                                             thinking    of
  e|-3---------------3---3---3-------|-3-------3---3-------3---3-------|
  B|-4---------------4---4---4-------|-4-------4---4-------4---4-------|
  G|-5---------------5---5---5-------|-4-------4---4-------4---4-------|
  D|-5---------------5---5---5-------|-5-------5---5-------5---5-------|
  A|-3---------------3---3---3-------|---------------------------------|
  E|---------------------------------|---------------------------------|




     G#6                               Bb
  e|---------------------------------|---------------------------------|
  B|-----------------4---------------|-----------------6---------------|
  G|-5-------------------------------|-7-------------------------------|
  D|---------------------------------|---------------------------------|
  A|---------------------------------|---------------------------------|
  E|---------------------------------|---------------------------------|
     you                                           and ev'ry   little
  e|-4-------4---4-------4---4-------|-1---------------1---1---1---1---|
  B|-6-------6---6-------6---6---6---|-3---------------3---3---3---3---|
  G|-5-------5---5-------5---5---5---|-3---------------3---3---3---3---|
  D|-6-------6---6-------6---6---6---|-3---------------3---3---3---3---|
  A|---------------------------------|-1---------------1---1---1---1---|
  E|---------------------------------|---------------------------------|




     Cm
  e|---------------------------------|---------------------------------|
  B|-------------4---3---------------|---------------------------------|
  G|---------------------------------|---------------------------------|
  D|---------------------------------|---------------------------------|
  A|---------------------------------|---------------------------------|
  E|---------------------------------|---------------------------------|
     thing   that    do                                        yes I'm
                 you
  e|-3---3---3---3---3---3---3---3---|-3---3---3---3---3---3---3---3---|
  B|-4---4---4---4---4---4---4---4---|-4---4---4---4---4---4---4---4---|
  G|-5---5---5---5---5---5---5---5---|-5---5---5---5---5---5---5---5---|
  D|-5---5---5---5---5---5---5---5---|-5---5---5---5---5---5---5---5---|
  A|-3---3---3---3---3---3---3---3---|-3---3---3---3---3---3---3---3---|
  E|---------------------------------|---------------------------------|




     G#                                Bb
  e|---------------------------------|-------------1-------------------|
  B|---------------------------------|-------------3-------------------|
  G|---------------------------------|-------------3-------------------|
  D|---------------------------------|-------------3-------------------|
  A|---------------------------------|-------------1-------------------|
  E|---------------------------------|---------------------------------|
     telling all my  friends                                   I'm in
  e|-4-------4---4-------4---4-------|-1-------1---1-------1---1---1---|
  B|-4-------4---4-------4---4-------|-3-------3---3-------3---3---3---|
  G|-5-------5---5-------5---5-------|-3-------3---3-------3---3---3---|
  D|-6-------6---6-------6---6-------|-3-------3---3-------3---3---3---|
  A|-6-------6---6-------6---6-------|-1-------1---1-------1---1---1---|
  E|-4-------4---4-------4---4-------|---------------------------------|




     Eb                                Bb
  e|---------------------------------|-----------------1---1---1---1---|
  B|-8-------------------------------|-----------------3---3---3---3---|
  G|-8-------------------------------|-----------------3---3---3---3---|
  D|-8-------------------------------|-----------------3---3---3---3---|
  A|-6-------------------------------|-----------------1---1---1---1---|
  E|---------------------------------|---------------------------------|
     love                                                      yes I'm
  e|-3-------3-------3---3---3---3---|-----1---1---1---1---1---1---1---|
  B|-4-------4-------4---4---4---4---|-----3---3---3---3---3---3---3---|
  G|-3-------3-------3---3---3---3---|-----3---3---3---3---3---3---3---|
  D|-5-------5-------5---5---5---5---|-----3---3---3---3---3---3---3---|
  A|---------------------------------|-----1---1---1---1---1---1---1---|
  E|---------------------------------|---------------------------------|





     BRIDGE
     00:50

     G#
  e|---------4-----------------------|-4---------------4---------------|
  B|-----4-------4-------------------|-----4-------4-------4-----------|
  G|-5---------------5-------5-------|---------5---------------5-------|
  D|---------------------6-----------|---------------------------------|
  A|---------------------------------|---------------------------------|
  E|---------------------------------|---------------------------------|
     feeling on  the top of  the       world                   I'm in



     G
  e|-3---------------3---------------|-3---------------3---------------|
  B|-----3-------3-------3-------3---|-----3-------3-------3-----------|
  G|---------4---------------4-------|---------4---------------4-------|
  D|---------------------------------|---------------------------------|
  A|---------------------------------|---------------------------------|
  E|---------------------------------|---------------------------------|
     love    with a  wonderful         girl                        I



     Cm
  e|-3-------3-------3-------3-------|-3---------------3---------------|
  B|-4-------4-------4-------4-------|-----4-------4-------4-----------|
  G|-5-------5-------5-------5-------|---------5---------------5-------|
  D|---------------------------------|---------------------------------|
  A|---------------------------------|---------------------------------|
  E|---------------------------------|---------------------------------|
     never   felt so good    before



     G#                                Bb
  e|---------------------------------|---------------------------------|
  B|---------------------------------|---------------------------------|
  G|---------------------------------|---------------------------------|
  D|-6----6----6-----6----6----6-----|-8----8----8-----8-------8-------|
  A|-6----6----6-----6----6----6-----|-8----8----8-----8-------8-------|
  E|-4----4----4-----4----4----4-----|-6----6----6-----6-------6-------|
     if   this is    love give me      more more more  more    oh




  e|-6-------------------------------|
  B|-6-------------------------------|
  G|-7-------------------------------|
  D|-8-------------------------------|
  A|-8-------------------------------|
  E|-6-------------------------------|
             Ev'ry   night I   can't




     VERSE

     01:07
          sleep thinking of you
     And ev'ry little thing that you do
     Yes, I'm telling all my friends
     I'm in



     01:21

     Eb                                Bb
  e|---------------------------------|---------------------------------|
  B|---------------------------------|---------------------------------|
  G|---------------------------------|---------------------------------|
  D|---------------------------------|-----------------5---3-----------|
  A|---------------------------------|-----------------------------6---|
  E|---------------------------------|---------6-----------------------|
     love




     GUITAR SOLO
     01:25

     Cm                                B+
  e|---------------------------------|---------------------------------|
  B|---------------------------------|---------------------------------|
  G|---------------------------------|---------------------------------|
  D|-5-------------------------------|-----------------5---3-------5---|
  A|---------------------------------|---------------------------------|
  E|---------------------------------|---------------------------------|




     G#6                               Bb
  e|---------------------------------|---------------------------------|
  B|---------------------------------|---------------------------------|
  G|---------------------------------|---------------------------------|
  D|-3-------------------------------|---------------------------------|
  A|-----------------6---------------|-----6---8---6---8-------6-------|
  E|---------------------------------|---------------------------------|




     Cm
  e|---------------------------------|---------------------------------|
  B|---------------------4-----------|---------------------------------|
  G|-5-------5---3---5---------------|---------------------------------|
  D|---------------------------------|-----------------------------3---|
  A|---------------------------------|-------------------------6-------|
  E|---------------------------------|---------------------------------|




     G#                                Bb
  e|---------------------------------|---------------------------------|
  B|---------------------------------|---------------------------------|
  G|---------------------------------|---------------------------------|
  D|-5---3---3-------3-------5---3---|---------------------5-------3---|
  A|-------------6-------------------|---------------------------------|
  E|---------------------------------|---------------------------------|




     Eb
  e|---------------------------------|---------------------------------|
  B|---------------------------------|---------------------------------|
  G|---------------------------------|---------------------------------|
  D|-3---------------5---------------|---------------------------------|
  A|---------------------------------|---------------------------------|
  E|---------------------------------|---------------------------------|
                                                               Yes I'm




     BRIDGE

     01:43
          feeling on the top of the world
     I'm in love with a wonderful girl
     I never felt so good before
     If this is love give me more, more, more, more, oh



     VERSE

                         01:59
     Every night I can't sleep
     Thinking of you
     And ev'ry little thing that you do
     Yes, I'm telling all my friends
     I'm in


     02:14

     Eb                                B+
  e|---------------------------------|-3-------------------------------|
  B|-8-------------------------------|-4-------------------------------|
  G|-8-------------------------------|-4-------------------------------|
  D|-8-------------------------------|-5-------------------------------|
  A|-6-------------------------------|---------------------------------|
  E|---------------------------------|---------------------------------|
     love                    I'm in    love                    yes I'm
  e|-3-------3---3-------3-----------|-3-------3-------3---3---3-------|
  B|-4-------4---4-------4-----------|-4-------4-------4---4---4-------|
  G|-3-------3---3-------3-----------|-4-------4-------4---4---4-------|
  D|-5-------5---5-------5-----------|-5-------5-------5---5---5-------|
  A|---------------------------------|---------------------------------|
  E|---------------------------------|---------------------------------|




     G#                                Bb
  e|-4-------------------------------|-6-------------------------------|
  B|-4-------------------------------|-6-------------------------------|
  G|-5-------------------------------|-7-------------------------------|
  D|-6-------------------------------|-8-------------------------------|
  A|-6-------------------------------|-8-------------------------------|
  E|-4-------------------------------|-6-------------------------------|
     telling all my  friends                                   I'm in
  e|-4-------4-------4---4---4---4---|-1-------1-------1---1---1-------|
  B|-4-------4-------4---4---4---4---|-3-------3-------3---3---3-------|
  G|-5-------5-------5---5---5---5---|-3-------3-------3---3---3-------|
  D|-6-------6-------6---6---6---6---|-3-------3-------3---3---3-------|
  A|-6-------6-------6---6---6---6---|-1-------1-------1---1---1-------|
  E|-4-------4-------4---4---4---4---|---------------------------------|




     Eb
  e|-6-------------------------------|---------------------------------|
  B|-8-------------------------------|---------------------------------|
  G|-8-------------------------------|---------------------------------|
  D|-8-------------------------------|---------------------------------|
  A|-6-------------------------------|---------------------------------|
  E|---------------------------------|---------------------------------|
     love
  e|-3-------------------------------|---------------------------------|
  B|-4-------------------------------|---------------------------------|
  G|-3-------------------------------|---------------------------------|
  D|-5-------------------------------|---------------------------------|
  A|---------------------------------|---------------------------------|
  E|---------------------------------|---------------------------------|
Tap to rate this tab
# A B C D E F G H I J K L M N O P Q R S T U V W X Y Z