Song name
# A B C D E F G H I J K L M N O P Q R S T U V W X Y Z

Beatles - Leave My Kitten Alone tab

-------------------------------------------------------------------------------
The Beatles- Leave My Kitten Alone (solo)
-------------------------------------------------------------------------------


e|------------------------------------------8--------------------------------|
B|--------------------------------------------11-8---------------------------|
G|--10b12-8-------8-10-10b12-10b12r10-8------------10b12-8-------------------|
D|----------10-10-----------------------10-----------------10----------------|
A|---------------------------------------------------------------------------|
E|---------------------------------------------------------------------------|

e|---------------------------------hold bend-----------------hold bend-------|
B|---------------------------------------------------------------------------|
G|------5--3--5-----5--3--5---10b12-12-12-12r10-8-----10b11-b12-12-12r10-8---|
D|---5--7--5--7--5--7--5--7-----------------------10-----------------------10|
A|---7-----------7-----------------------------------------------------------|
E|---------------------------------------------------------------------------|

e|--8----11-13-13b15-15r13----13b15r13-11----13b15-15-15r13-11---------------|
B|----13-------------------15-------------13-------------------13------------|
G|---------------------------------------------------------------------------|
D|---------------------------------------------------------------------------|
A|---------------------------------------------------------------------------|
E|---------------------------------------------------------------------------|

e|------------------------------------------------8----8---------------------|
B|--13-13\11-11-----11-11\10-10---------------------11-----------------------|
G|--14-14\12-12--12-12-12\10-10----10b12-8b8.5-----------10b12-(8)-----------|
D|---------------------------------------------10------------------(10)------|
A|---------------------------------------------------------------------------|
E|---------------------------------------------------------------------------|

Tap to rate this tab
 
# A B C D E F G H I J K L M N O P Q R S T U V W X Y Z