Song name
# A B C D E F G H I J K L M N O P Q R S T U V W X Y Z

Beatles - Young Blood tab

-------------------------------------------------------------------------------
The Beatles- Young Blood
Live at the BBC

Verse
e|---------------------------------------------------------------------------|
B|---------------------------------------------------------------------------|
G|---------------------------------------------------------------------------|
D|----------------2-2-------------2-2-------------2-2-------------2-2--------|
A|--------0-0-3-4-0-0-3-4-0-0-3-4-0-0-3-4-0-0-3-4-0-0-3-4-0-0-3-4-0-0-3-4----|
E|--0-2-4--------------------------------------------------------------------|

e|---------------------------------------------------------------------------|
B|---------------------------------------------------------------------------|
G|---------------------------------------------------------------------------|
D|----------2-2-------------2-2----------------------------------------------|
A|--0-0-3-4-0-0-3-4-0-0-3-4-0-0-3-4-0----------------------------------------|
E|---------------------------------------------------------------------------|

Chorus
e|---------------------------------------------------------------------------|
B|---------------------------------------------------------------------------|
G|---------------2-2-4-2---------2-2-4-2-------------------------------------|
D|-------0-0-3-4---------0-0-3-4-----------------2-2-4-2---------2-2-4-2-----|
A|-0-2-4---------------------------------0-0-3-4---------0-0-3-4-------------|
E|---------------------------------------------------------------------------|

e|---------------------------------------------------------------------------|
B|---------------------------------------------------------------------------|
G|---------2-2-4-2---------2-2-4-2-------------------------------------------|
D|-0-0-3-4---------0-0-3-4---------------------------------------------------|
A|---------------------------------------------------------------------------|
E|---------------------------------0---0-0-0-0-0-2-4-------------------------|

Verse
e|---------------------------------------------------------------------------|
B|---------------------------------------------------------------------------|
G|---------------------------------------------------------------------------|
D|----------------2-2-------------2-2-------------2-2-------------2-2--------|
A|--------0-0-3-4-0-0-3-4-0-0-3-4-0-0-3-4-0-0-3-4-0-0-3-4-0-0-3-4-0-0-3-4----|
E|---------------------------------------------------------------------------|

e|---------------------------------------------------------------------------|
B|---------------------------------------------------------------------------|
G|---------------------------------------------------------------------------|
D|----------2-2-------------2-2----------------------------------------------|
A|--0-0-3-4-0-0-3-4-0-0-3-4-0-0-3-4-0----------------------------------------|
E|---------------------------------------------------------------------------|

Chorus
e|---------------------------------------------------------------------------|
B|---------------------------------------------------------------------------|
G|---------------2-2-4-2---------2-2-4-2-------------------------------------|
D|-------0-0-3-4---------0-0-3-4-----------------2-2-4-2---------2-2-4-2-----|
A|-0-2-4---------------------------------0-0-3-4---------0-0-3-4-------------|
E|---------------------------------------------------------------------------|

e|---------------------------------------------------------------------------|
B|---------------------------------------------------------------------------|
G|---------2-2-4-2---------2-2-4-2-------------------------------------------|
D|-0-0-3-4---------0-0-3-4---------------------------------------------------|
A|---------------------------------------------------------------------------|
E|---------------------------------0---0-0-0-0-0-----------------------------|

Bridge
e|---------------------------------------------------------------------------|
B|---------------------------------------------------------------------------|
G|---6--7--6--7------------------------------4--5--4--5----------------------|
D|---6--7--6--7---------0-0-------------0-0--4--5--4--5----------------------|
A|---4--5--4--5-----1-2-----1-2-----1-2------2--3--2--3----------------------|
E|--------------3-3-------------3-3------------------------------------------|

Verse
e|---------------------------------------------------------------------------|
B|---------------------------------------------------------------------------|
G|---------------------------------------------------------------------------|
D|----------------2-2-------------2-2-------------2-2-------------2-2--------|
A|--------0-0-3-4-0-0-3-4-0-0-3-4-0-0-3-4-0-0-3-4-0-0-3-4-0-0-3-4-0-0-3-4----|
E|--0-2-4--------------------------------------------------------------------|

e|---------------------------------------------------------------------------|
B|---------------------------------------------------------------------------|
G|---------------------------------------------------------------------------|
D|----------2-2-------------2-2----------------------------------------------|
A|--0-0-3-4-0-0-3-4-0-0-3-4-0-0-3-4-0----------------------------------------|
E|---------------------------------------------------------------------------|

Chorus
e|---------------------------------------------------------------------------|
B|---------------------------------------------------------------------------|
G|---------------2-2-4-2---------2-2-4-2-------------------------------------|
D|-------0-0-3-4---------0-0-3-4-----------------2-2-4-2---------2-2-4-2-----|
A|-0-2-4---------------------------------0-0-3-4---------0-0-3-4-------------|
E|---------------------------------------------------------------------------|

e|---------------------------------------------------------------------------|
B|---------------------------------------------------------------------------|
G|---------2-2-4-2---------2-2-4-2-------------------------------------------|
D|-0-0-3-4---------0-0-3-4---------------------------------------------------|
A|---------------------------------------------------------------------------|
E|---------------------------------0---0-0-0-0-0-0-0-------------------------|

Chorus
e|---------------------------------------------------------------------------|
B|---------------------------------------------------------------------------|
G|----------2-2-4-2---------2-2-4-2------------------------------------------|
D|--0-0-3-4---------0-0-3-4-----------------2-2-4-2---------2-2-4-2----------|
A|----------------------------------0-0-3-4---------0-0-3-4------------------|
E|---------------------------------------------------------------------------|

e|---------------------------------------------------------------------------|
B|----------------------------------------------12---------------------------|
G|---------2-2-4-2---------2-2-4-2--------------12---------------------------|
D|-0-0-3-4---------0-0-3-4----------------------11---------------------------|
A|----------------------------------------------12---------------------------|
E|---------------------------------0-----------------------------------------|

Tap to rate this tab
# A B C D E F G H I J K L M N O P Q R S T U V W X Y Z