Song name
# A B C D E F G H I J K L M N O P Q R S T U V W X Y Z

Beatles - Free As A Bird tab

  A             F#m        Fmaj7         E7
e|------------------------|------0-----------------|
B|------2-------------2---|------1-------------0---|
G|------2-------------2---|---2-----2----------1---|
D|---2-----2--------------|3-----------------------|
A|0----------------4-----4|-----------------2-----2|
E|--------------2---------|--------------0---------|
  Free                                   as    a 

  A             F#m        Dm            E
e|------------------------|------1-----------------|
B|------2-------------2---|------3-------------0---|
G|------2-------------2---|---2-----2----------1---|
D|---2-----2--------------|0-----------------------|
A|0----------------4-----4|-----------------2-----2|
E|--------------2---------|--------------0---------|
  bird,                        it's the next best

  A             F#m        Dm            G7
e|------------------------|------1-----------------|
B|------2-------------2---|------3-------------0---|
G|------2-------------2---|---2-----2----------0---|
D|---2-----2--------------|0-----------------------|
A|0----------------4-----4|-----------------2-----2|
E|--------------2---------|--------------3---------| 
  thing to      be.                Free  as    a 

  C             Am         Esus4         E7
e|------------------------|------------------------|
B|------1-------------1---|------0-------------0---|
G|------0-------------2---|------2-------------1---|
D|---2-----2-------2-----2|------------------------|
A|3-------------0---------|---2-----2-------2-----2|
E|------------------------|0-------------0---------|
bird. 


A F#m Fmaj7 E7       A   F#m
Home,       home and dry, 

Dm     E      A         F#m    
like a homing bird I'll fly

Dm   G7      C     Am Esus4 E7
as a bird on wings. 


F
Whatever happened to 

Cdim
the life that we once knew? 

G                  A
Can we really live without each other? 


F
Where did we lose the touch 

Cdim
that seemed to mean so much?

G                 E 
It always made me feel so... 


A F#m Fmaj7 E7   A   F#m
Free        as a bird, 

Dm       E         A        F#m    
it's the next best thing to be. 

Dm   G7   C    Am Esus4 E7
Free as a bird.  


A F#m Fmaj7 E7       A   F#m
Home,       home and dry, 

Dm     E      A         F#m    
like a homing bird I'll fly

Dm   G7      C     Am Esus4 E7
as a bird on wings. 


F
Whatever happened to 

Cdim
the life that we once knew? 

G                 E
It always made me feel so free.


Solo


A F#m Fmaj7 E7   A   F#m
Free        as a bird, 

Dm       E         A        F#m    
it's the next best thing to be. 

Dm   G7   A    F#m
Free as a bird. 

Dm   G7   A    F#m
Free as a bird.

Dm   G7   A    F#m
Free as a bird. 



Tabbed by: ohadmichael
Lyrics by: letssingit
Tap to rate this tab
 
# A B C D E F G H I J K L M N O P Q R S T U V W X Y Z