Song name
# A B C D E F G H I J K L M N O P Q R S T U V W X Y Z

Beatles - Run For Your Life tab

   D                                                          G
e|-15B16-15--13-15-13-----------------15B16-16-16R15-13----------------------|
B|--------------------15-13-15--15~---------------------15-13----------------|
G|------------------------------------------------------------12--12~--------|
D|---------------------------------------------------------------------------|
A|---------------------------------------------------------------------------|
E|---------------------------------------------------------------------------|
                              D            
e|-------15------------------------------------------------------------------|
B|-15B16----16R15-15-13----13-15--15~--------10------------------------------|
G|----------------------14-------------12B13----13R12-12-10------------------|
D|----------------------------------------------------------12-10-12-12~-----|
A|---------------------------------------------------------------------------|
E|---------------------------------------------------------------------------|
  A                           D
e|---------------------------------------------------------------------------|
B|-----------------------------------10--------------------------------------|
G|-----12----12--10-/-12-12~---12B13----13R10-10-----------------------------|
D|-/12----12-----10/--12--12~---------------------10--12---------------------|
A|---------------------------------------------------------------------------|
E|---------------------------------------------------------------------------|
Tap to rate this tab
 
# A B C D E F G H I J K L M N O P Q R S T U V W X Y Z