Song name
# A B C D E F G H I J K L M N O P Q R S T U V W X Y Z

Beatles - All My Loving tab

“All My Lovin’”
The Beatles
Tabbed by John Martin

This tab uses a technique called cross-picking. 
Developed by George Shuffler with the Stanley Brothers, 
it involves using a pick in a constant roll across 
three strings. Use the pick direction of down-down-up 
(DDU). In some cases you must use a DDU DDU DU pattern.


                 “Close      your…”   F#m
E|-----------------------0---------|----------------------0----------]
B|-------------------0-----------0-|----------0-------0-----------0--]
G|---------------2-----------1-----|------2-------1-----------2------]
D|---------------------------------|--4------------------------------]
A|---------------------------------|---------------------------------]
E|---------------------------------|---------------------------------]
   B                                  E
E|----------2-----------7----------|----------0-----------0----------]
B|------0-----------0-----------0--|------0-----------0-----------0--]
G|--4-----------6-----------8------|--9-----------9-----------8------]
D|---------------------------------|---------------------------------]
A|---------------------------------|---------------------------------]
E|---------------------------------|---------------------------------]
   C#m                                A
E|----------0-----------0----------|----------0-----------0-------0--]
B|------0-----------0-----------0--|------5-----------5--------------]
G|--6-----------------------6------|--6-----------6-----------4------]
D|--------------6------------------|---------------------------------]
A|---------------------------------|---------------------------------]
E|---------------------------------|---------------------------------]
   F#m                               D      
E|----------0-----------0----------|----------------------0----------]
B|------0-----------0-----------0--|----------0-------0-----------0--]
G|--2-----------1-----------2------|------2-------1-----------2------]
D|---------------------------------|--4------------------------------]
A|---------------------------------|---------------------------------]
E|---------------------------------|---------------------------------]
   B7                                F#m
E|----------2-----------0----------|----------------------0----------]
B|------0-----------0-----------0--|----------0-------0-----------0--]
G|--4-----------2-----------1------|------2-------1-----------2------]
D|---------------------------------|--4------------------------------]
A|---------------------------------|---------------------------------]
E|---------------------------------|---------------------------------]
   B                                  E
E|----------2-----------7----------|----------0-----------0----------]
B|------0-----------0-----------0--|------0-----------0-----------0--]
G|--4-----------6-----------8------|--9-----------9-----------8------]
D|---------------------------------|---------------------------------]
A|---------------------------------|---------------------------------]
E|---------------------------------|---------------------------------]
   C#m                                A
E|----------0-----------0----------|----------0-----------0-------0--]
B|------0-----------0-----------0--|------5-----------5--------------]
G|--6-----------------------6------|--6-----------6-----------4------]
D|--------------6------------------|---------------------------------]
A|---------------------------------|---------------------------------]
E|---------------------------------|---------------------------------]
   B                                 E
E|----------0-----------0----------|---------------------------------]
B|------0-----------0-----------0--|----------0-----------0----------]
G|--2-----------1------------------|------1-----------1-----------1--]
D|--------------------------4------|--2-----------2-----------2------]
A|---------------------------------|---------------------------------]
E|---------------------------------|---------------------------------]
   E to verse (1st time)
E|---------------------0-----------|]
B|-----------------0------------0--|]
G|-------------2-----------1-------|]
D|--2------------------------------|]
A|---------------------------------|]
E|---------------------------------|]

   E to chorus (2nd time)             C#m
E|---------------------0-----------|----------0-----------0----------]
B|-----------------0-----------0---|------0-----------0--------------]
G|-------------9-----------8-------|--6---------------------------6--]
D|--2------------------------------|--------------6-----------6------]
A|---------------------------------|---------------------------------]
E|---------------------------------|---------------------------------]
   C#m+                              E
E|---------------------------------|---------------------------------]
B|----------0---------------0------|----------0-----------0----------]
G|------4---------------4----------|------4-----------4-----------4--]
D|--6-----------4---2-----------4--|--6-----------6-----------6------]
A|---------------------------------|---------------------------------]
E|---------------------------------|---------------------------------]
   E                                 C#m
E|----------------------0----------|----------0-----------0----------]
B|------------------0-----------0--|------0-----------0--------------]
G|--------------9-----------8------|--6---------------------------6--]
D|---6-----------------------------|--------------6-----------6------]
A|---------------------------------|---------------------------------]
E|---------------------------------|---------------------------------]
   C#m+                              E
E|---------------------------------|---------------------------------]
B|----------0-----------0----------|----------0-----------0----------]
G|------4-----------4-----------4--|------1-----------1-----------1--]
D|--6-----------4-----------4------|--2-----------2-----------2------]
A|---------------------------------|---------------------------------]
E|---------------------------------|---------------------------------]
   E to solo
E|---------------------------------|]
B|---------------------------------|]
G|---------------------------------|]
D|--2------------------------------|]
A|---------------------------------|]
E|-----------0-------2--------4----|]

   A Solo leads back to verse        A
E|---------------------------------|----------9-----------7-------5--]
B|---------------------------------|------0-----------0--------------]
G|----------2-----------2----------|--9-----------7-----------6------]
D|------2-----------2-----------2--|---------------------------------]
A|--0-----------0-----------0------|---------------------------------]
E|---------------------------------|---------------------------------]
   E                                 E
E|---------------------------------|----------7-----------5-------4--]
B|---------------------------------|------0-----------0--------------]
G|---------------------------------|--9-----------6-----------4------]
D|----------2-----------2----------|---------------------------------]
A|------2-----------2-----------2--|---------------------------------]
E|--0-----------0-----------0------|---------------------------------]
   F#m                               F#m
E|---------------------------------|----------5-----------4-------2--]
B|---------------------------------|------0-----------0--------------]
G|---------------------------------|--6-----------4-----------2------]
D|----------4-----------4----------|---------------------------------]
A|------4-----------4-----------4--|---------------------------------]
E|--2-----------2-----------2------|---------------------------------]
   E                                 E back to verse
E|----------0-----------0----------|-----------------------0---------]
B|------0-----------0-----------0--|-------------------0----------0--]
G|--0h1---------0h1---------0h1----|---------------2----------1------]
D|---------------------------------|--2------------------------------]
A|---------------------------------|---------------------------------]
E|---------------------------------|---------------------------------]
Tap to rate this tab
# A B C D E F G H I J K L M N O P Q R S T U V W X Y Z