Guitaretab - guitar tabs
Song name
# A B C D E F G H I J K L M N O P Q R S T U V W X Y Z

Beatles - Help! tab

Help!                                                      - Beatles
=====
Bm               Bm/A
Help! I need somebody 
G                 G/F#
Help! Not just anybody
E
 Help! You know I need someone,
A
Help!


A                             C#m             
  When I was younger, so much younger than today,
F#m                          D       G   A
    I never needed anybody's help in any way.
A                                C#m                 
 But now those days are gone I'm not so self-assured,
A                                      D      G      A
 Now I find I've changed my mind, I've opened up the door.


 Bm                                 Bm/A    G                            G/F#  
Help me if you can I'm feeling down, and I do appreciate you being 'round.
 E                                                  A(guitar run)
Help me get my feet back on the ground, won't you please please help me.

A                                C#m            
  And now my life has changed in oh so many ways,
F#m                          D      G      A
   My independence seemed to vanish in the haze.
                         C#m
But every now and then I feel so insecure,  
F#m                                       D    G     A
    I know that I just need you like I've never done before.


 Bm                                 Bm/A    G                            G/F#
Help me if you can I'm feeling down, and I do appreciate you being 'round.
 E                                                 A
Help me get my feet back on the ground, won't you please please help me.


A                            C#m               
When I was younger, so much younger than today,
F#m                          D       G   A
    I never needed anybody's help in any way.
A                                C#m                 
 But now those days are gone I'm not so self-assured,
F#m                                        D     G      A
    Now I find I've changed my mind, I've opened up the door.


 Bm                                 Bm/A    G                            G/F#  
Help me if you can I'm feeling down, and I do appreciate you being 'round.
E                                                   A               
  Help me get my feet back on the ground, won't you please please help me.
     F#m      A   A6
Help me, help me, ooo.


Guitar run at chorus end:                *        Tabbed       *
B ---0----0----0----0-                   *          by         *
G --0----0----0----0--                   *        Chris        *
D -5----4----3----2---                   *      Williscroft    *
A 7----6----5----4---- 

Bass: Intro:
D--9-9-9-9-9-9-9-7-5-5-5-5-5-5-5-4-2-2-2-2-2-2-2-2-7--
A--------------------------------------------------0--

first verse:
D--7-7---7-7--------------6-----6-------4-4---4-4----------5-7-7-7---5---
A------7-----7--------4-4---4-4-------------4-----4----5-5---------7-----

D-7-7---7-7---------6-----6----4-4---4-4-----------5-7-7-7-7-7-----
A-----7-----7---4-4---4-4----------4-----4-----5-5-----------------

chorus:
A--2-2-----2-2-----2-2-----2-2-------5-5-----5-5-----5-5---------------
E------2-2-----2-2-----2-2-----5-3-3-----3-3-----3-3-----3-3-2-2-----

A---------2-2---2---------2-2---2-7-----------------------------------
E-0-0-4-4-----4---0-0-4-4-----4---------------------------------------

second verse:
D--7-7----7-7----------6-----6---4-4---4-4--------5-7-7---5------
A------7------7----4-4---4-4---------4-----4--5-5-------7---------

D--7-7----7-7----------------------4-4---4-4---------5-5-7-7-7-7---
A------7------7----4-4----4-4----------4-----4---5-5---------------
E----------------------4------4------------------------------------

chorus

third verse:
D------7-------------------------4-----------5--------------7------7-7--
A-------------------4--------------------------3-5------5-5----5-5------

D------6--------6----4-4---4-4-----------5-7-7-7-----------------------
A--4-4------4-4----------4-----4-----5-5-------------------------------

chorus

outro:
D----4-4---------4-4-------4--------7---------------------------------
A----------4-4----------4-----------0---------------------------------
[ Tab from: http://www.guitaretab.com/b/beatles/22384.html ]
Related for Help! tab
Help! chords by Beatles