Song name
# A B C D E F G H I J K L M N O P Q R S T U V W X Y Z

Beatles - I Wanna Be Your Man tab

intro

e--------------------|
B--------------------|
G--------------------|
D-----7rb9-----------|
A----------7---------|
E--------------------|

verse:
E7
I wanna be your lover baby, I wanna be your man.
                            B7              E
I wanna be your lover baby, I wanna be your man.
E7
Love you like no other baby, like no other can,
E7                           B7            E
Love you like no other baby, like no other can.

chorus:

I wanna be your man
e---------------------------------------------------------|
B---------------------------------------------------------|
G--------------------------7--6--5--4---------------------|
D---------------------------------------------------------|
A---------------------------------------------------------|
E---------------------------------------------------------|


I wanna be your man
e---------------------------------------------------------|
B---------------------------------------------------------|
G--------------------------5--4--3--2---------------------|
D---------------------------------------------------------|
A---------------------------------------------------------|
E---------------------------------------------------------|


I wanna be your man
e---------------------------------------------------------|
B---------------------------------------------------------|
G--------------------------7--6--5--4---------------------|
D---------------------------------------------------------|
A---------------------------------------------------------|
E---------------------------------------------------------|

I wanna be your man
e----------------------------------------------------------|
B----------------------------------------------------------|
G-----------------3--5-------------------------------------|
D----------------------------------------------------------|
A----------------------------------------------------------|
E----------------------------------------------------------|

verse2:
same as above

chorus 2:
I wanna be your man
e---------------------------------------------------------|
B---------------------------------------------------------|
G--------------------------7--6--5--4---------------------|
D---------------------------------------------------------|
A---------------------------------------------------------|
E---------------------------------------------------------|


I wanna be your man
e---------------------------------------------------------|
B---------------------------------------------------------|
G--------------------------5--4--3--2---------------------|
D---------------------------------------------------------|
A---------------------------------------------------------|
E---------------------------------------------------------|

I wanna be your man
e---------------------------------------------------------|
B---------------------------------------------------------|
G--------------------------7--6--5--4---------------------|
D---------------------------------------------------------|
A---------------------------------------------------------|
E---------------------------------------------------------|


I wanna be your man
e---------------------------------------------------------|
B---------------------------------------------------------|
G----------------5--3-----------5--3----------------------|
D---------------------------------------------------------|
A---------------------------------------------------------|
E---------------------------------------------------------|

solo:

e------------------------------------------------------------|
B------------------------------------------------------------|
G------------------4-----------------------------------------|
D---------7^1/4--------7--5----------------5--7--7^1/4-------|
A------------------------------7--5--7--7--------------------|
E------------------------------------------------------------|

e---------------------------------------------------------|
B---------------------------------------------------------|
G--------------------------------9-----7----9----12-------|
D--7--5-------------------------9-----7----9----12--------|
A---------7--5--7-----------------------------------------|
E---------------------------------------------------------|

verse 3: Same as above

chorus: Same as chorus 1

outro:
e-----------------------------|
B-----------------------------|
G----9-----7----9----12-------|
D----9-----7----9----12-------|
A-----------------------------|
E-----------------------------|

repeat and fade
Tap to rate this tab
# A B C D E F G H I J K L M N O P Q R S T U V W X Y Z