Song name
# A B C D E F G H I J K L M N O P Q R S T U V W X Y Z

Beatles - Hey Jude tab

-------------------------------------------------------------------------------
			     Hey Jude  The Beatles
-------------------------------------------------------------------------------
Tabbed by: Jens B. T.
Email: jenstroelsen@hotmail.com

Tuning: E,A,D,G,H,e

I have tabbed the melody voice for this song. I have added the lyrics
because you should know where you are In the song
-------------------------------------------------------------------------------
Verse 

e|-----------------------------------1--1-0---------------------------3-1-0--|
B|---1h3-----------1-3----------------------1-3-1-----------1-3-3--3---------|
G|-------2-------2-----0------0-2-3---------------3-2------------------------|
D|---------------------------------------------------------------------------|
A|---------------------------------------------------------------------------|
E|---------------------------------------------------------------------------|


e|--1------------------------------------------------------------------------|
B|----3-1--------1-3-1--1----------------------------------------------------|
G|-----------0-2----------3-2------------------------------------------------|
D|-----------------------------2--3------------------------------------------|
A|---------------------------------------------------------------------------|
E|---------------------------------------------------------------------------|

Hey Jude, don't make it bad
Take a sad song and make it better
Remember to let her into your heart
Then you can start to make it better

-------------------------------------------------------------------------------

The next verse is just like the first one.

Hey Jude, don't be afraid
You were made to go out and get her
The minute you let her under your skin
Then you begin to make it better

-------------------------------------------------------------------------------

bridge

e|------1-----------------1---1---1------------------------------------------|
B|--------3-1---1---3-------3-------3-1---1---3-1----------------------------|
G|----3-------3---3-------------3-------3---------3-2--0---------------------|
D|-------------------------------------------------------3-------------------|
A|---------------------------------------------------------------------------|
E|---------------------------------------------------------------------------|


e|------1-----------------1---1---1------------------------------------------|
B|--------3-1---1---3-------3-------3-1---1---3-1----------------1-3-3-------|
G|----3-------3---3-------------3-------3---------3-2--0-------3-------------|
D|-------------------------------------------------------3---3---------------|
A|---------------------------------------------------------------------------|
E----------------------------------------------------------------------------|


e|---0-1-3-3-----------------------------------------------------------------|
B|---------------------------------------------------------------------------|
G|---------------------------------------------------------------------------|
D|---------------------------------------------------------------------------|
A|---------------------------------------------------------------------------|
E|---------------------------------------------------------------------------|

And anytime you feel the pain, hey Jude, refrain
Don't carry the world upon your shoulders
For well you know that it's a fool who plays it cool
By making his world a little colder
Na na na, na na, na na na na
-------------------------------------------------------------------------------
Verse

This verse is just like the other ones.

Hey Jude, don't let me down
You have found her, now go and get her
Remember to let her into your heart
Then you can start to make it better

--------------------------------------------------------------------------------
Bridge

e|------1-----------------1---1---1------------------------------------------|
B|--------3-1---1---3-------3-------3-1---1---3-1----------------------------|
G|----3-------3---3-------------3-------3---------3-2--0---------------------|
D|-------------------------------------------------------3-------------------|
A|---------------------------------------------------------------------------|


E|----1-3-6-3-1-3-1-------1---1---1------------------------------------------|
e|------------------3-------3-------3-1---1---3-1----------------1-3-3-------|
B|------------------------------3-------3---------3-2--0-------3-------------|
G|-------------------------------------------------------3---3---------------|
D|---------------------------------------------------------------------------|
A|---------------------------------------------------------------------------|
E|---------------------------------------------------------------------------|


e|---0-1-3-3-----------------------------------------------------------------|
B|---------------------------------------------------------------------------|
G|---------------------------------------------------------------------------|
D|---------------------------------------------------------------------------|
A|---------------------------------------------------------------------------|
E|---------------------------------------------------------------------------|

So let it out and let it in, hey Jude, begin
You're waiting for someone to perform with
And don't you know that it's just you? Hey Jude, you'll do
The movement you need is on your shoulder
Na na na, na na, na na na na, yeah
-------------------------------------------------------------------------------
Verse

e|-----------------------------------1--1-0---------------------------3-1-0--|
B|---1h3-----------1-3----------------------1-3-1-----------1-3-3--3---------|
G|-------2-------2-----0------0-2-3---------------3-2------------------------|
D|---------------------------------------------------------------------------|
A|---------------------------------------------------------------------------|
E|---------------------------------------------------------------------------|


e|--1--------------------------------------0-1-3-5-6-8-12s13-----------------|
B|----3-1--------1-3-1--1--------------1-3-----------------------------------|
G|-----------0-2----------3-2------2-3---------------------------------------|
D|-----------------------------2-3-------------------------------------------|
A|---------------------------------------------------------------------------|
E|---------------------------------------------------------------------------|

Hey Jude, don't make it bad
Take a sad song and make it better
Remember to let her under your skin
Then you begin to make it better
Better, better, better, better, better, oh!

-------------------------------------------------------------------------------
Outro

e|---------3-1-3-1---3-1-3-1-------------------------------------------------|
B|-------1--------------------3----------------------------------------------|
G|-----2------------------------2--------------------------------------------|
D|---3-----------------------------------------------------------------------|
A|---------------------------------------------------------------------------|
E|---------------------------------------------------------------------------|

Repeat this about 10 times and the fade out.

Na na na, na-na na na
Na-na na na, hey Jude
Na na na, na-na na na
Na-na na na, hey Jude
-------------------------------------------------------------------------------

Please rate and thanks for your attention 
Tap to rate this tab
 
# A B C D E F G H I J K L M N O P Q R S T U V W X Y Z