Song name
# A B C D E F G H I J K L M N O P Q R S T U V W X Y Z

Beatles - Hello Goodbye tab

HELLO GOODBYE
--------------
1967  "Magical Mystery Tour"
The Beatles   Lennon/McCartney

this is the way i play it, Enjoy


VERSE

E|--1-----1---1-----------|--0-----0---0-------------|
B|--3-----3---3-----------|--1-----1---1-------------|
G|--2----(2)--------------|--0----(0)----------------|
D|--3----(3)--------------|--2----(2)----------------|
A|------------------------|--3----(3)----------------|
E|------------------------|--------------------------|

   You   say yes            I    say  no

E|--1-----1---1---------1-|--0-----0------0------0---|
B|--0-----0---0---------0-|--1-----1------1------1---|
G|--0-----0--(0)----------|--2-----2------2------2---|
D|--0----(0)--------------|--2-----2------2------2---|
A|--2----(2)--------------|--0-----0------0------0---|
E|--3----(3)--------------|--------------------------|

    You say  stop     and  I   say    go      go

E|--1-----1-----1-----1---|--0------0------0-----0---|
B|--0-----0-----0-----0---|--1------1------1-----1---|
G|--0-----0-----0-----0---|--2------2------2-----2---|
D|--0-----0-----0-----0---|--2------2------2-----2---|
A|--2-----2-----2-----2---|--0------0------0-----0---|
E|--3-----3-----3-----3---|--------------------------|

    go_________              Ah___________        Oh

E|--3----3--3--3--3--3--3-|--1-----------------------|
B|--3----3--3--3--3--3--3-|--0-----------------------|
G|--0---(0)---------------|--0-----------------------|
D|--0---(0)---------------|--0-----------------------|
A|--2---(2)---------------|--2-----------------------|
E|--3---(3)---------------|--3-----------------------|

   nooooooooooo___           You__ say goodbye!

E|--1---------------------|
B|--1---------------------|
G|--2---------------------|
D|--3---------------------|
A|--3---------------------|
E|--1---------------------|

 and I say Hello!


CHORUS

E|------------------------------------|--1---1----4---4--|
B|-------1--------1--------1----------|--1---1----4---4--|
G|-----0--------0--------0----------0-|--2---2----5---5--|
D|---2--------2--------2----------2---|--2---2----6---6--|
A|-3--------2--------0----------3-----|--3---3----6---6--|
E|----------------------------3-------|--1---1----4---4--|

  Hello    Hello!!!                don't   why   say      I
                                       know   you  goodbye say

E|------------------------------------|--1---1----1---1--|
B|-------1--------1--------1----------|--1---1----3---3--|
G|-----0--------0--------0----------0-|--2---2----3---3--|
D|---2--------2--------2----------2---|--2---2----3---3--|
A|-3--------2--------0----------3-----|--3---3----1---1--|
E|----------------------------3-------|--1---1-----------|

  Hello!    Hello Hello!          don't   why   say      I
                                      know   you  goodbye say


E|--0---------------------|R|
B|--1---------------------|E|
G|--0---------------------|P|
D|--2---------------------|E|
A|--3---------------------|A|
E|------------------------|T|

   Hello


(REPEAT)


then rock out to this last chord, its a C

E|--0---|
B|--1---|
G|--0---|
D|--2---|
A|--3---|
E|------|

Hela Heba Heloa
Hela Heba Heloa
Hela Heba Heloa
Tap to rate this tab
 
# A B C D E F G H I J K L M N O P Q R S T U V W X Y Z