Song name
# A B C D E F G H I J K L M N O P Q R S T U V W X Y Z

Beatles - Rocky Racoon tab

THE FOLLOWING PROGRESSION IS REPEATED THROUGHOUT THE 
SONG WITH SLIGHT TIMING ALTERATIONS:

	
    Am/G              Dsus2   D       G
----3-3-3----3-3-3----3-3-3---2-2-2---3-3-3---3-3-3--
----1-1-1----1-1-1----3-3-3---3-3-3---0-0-0---0-0-0--
----2-2-2----2-2-2----2-2-2---2-2-2---0-0-0---0-0-0--
----2-2-2----2-2-2---0-------0-----------------------
--0--------0-----------------------------------------
-------------------------------------3-------3-------


     C
-----3-3-3---3-3-3----
-----1-1-1---1-1-1----
-----0-0-0---0-0-0----
----------------------
--3--------2----------
----------------------

This is the correct version no matter what anyone else says.

E-Mail:   flippin42@free.net.nz
URL:      http://www.oogle42.netfirms.com
Tap to rate this tab
 
# A B C D E F G H I J K L M N O P Q R S T U V W X Y Z