Guitaretab - guitar tabs
Song name
# A B C D E F G H I J K L M N O P Q R S T U V W X Y Z

Beatles - Junk tab

The Beatles - Junk
Tabbed By: Jordan Thomas
EMail: Seifer87@msn.com


This is my first go at tabbing, so bear with me if it isn't up to par.
Email any suggestions to FordGT4D@aol.com!


You have to figure out the speed, but it's fairly simple.
I was surprised that no one had tabbed this out yet.  
This tab is of the Anthology 3 version of the song.
[ Tab from: http://www.guitaretab.com/b/beatles/23547.html ]
E --0---1---0-------0-------------------0--------------------
B --------------3-------3---1---3---1-------1----------------
G ----------------------------------------------2------------
D -----------------------------------------------------------
A -----------------------------------------------------------
E -----------------------------------------------------------

E -----------------------------------------------------------
B ------0---1---3-------1------------------------------------
G --2---------------2-------2---0----------------------------
D -----------------------------------------------------------
A -----------------------------------------------------------
E -----------------------------------------------------------
Related for Junk tab
Junk chords by Beatles