Song name
# A B C D E F G H I J K L M N O P Q R S T U V W X Y Z

Beatles - Dig A Pony tab

-----------------------------------------------------------------
Dig A Pony - The Beatles
-----------------------------------------------------------------
Tabbed by: DgorillazguyH
Email: almostashuvit@yahoo.com
Tuning: EADGBE

Intro:
    G           D             A
E|---------------------------------------------------------------|
B|----------------------3----------------------------------------|
G|----------0-------2-4---4---2-2-2------------2-----------------|
D|------0-2---2-0-4-----------2-2-2------2-3h4---4-3-----2-------|
A|----2-----------------------0-0-0--3-4-------------3h4---0-----|
E|--3------------------------------------------------------------|

    G           D             A
E|---------------------------------------------------------------|
B|----------------------3----------------------------------------|
G|----------0-------2-4---4---2-2-2------------2-----------------|
D|------0-2---2-0-4-----------2-2-2------2-3h4---4-3-----2-------|
A|----2-----------------------0-0-0--3-4-------------3h4---0-----|
E|--3------------------------------------------------------------|

Verse:
      A                                     F#m 
E|---------------------------------------------2---2-------------|
B|----2-------2---2-----2---2------------------2---2-------------|
G|----2---2---2-2---2---2-2---2---2h4-2--------2---2-------------|
D|----2---2h4-2-----2h4-2-----2h4-------4p2--4-4-4-4--2h4-2------|
A|--0---0------------------------------------4-4-4-4--------4----|
E|-------------------------------------------2-2-2-2-------------|

    Bm        G                    Bm     G
E|----2-2-2---3-3--3-5/7-5-3-3/5----2-2-2---3-3-3---0--2--3--4---|
B|----3-3-3---3-3--3-5/7-5-3-3/5----3-3-3---3-3-3----------------|
G|----4-4-4---4-4-------------------4-4-4---4-4-4--1--2--3--4----|
D|----4-4-4---5-5-------------------4-4-4---5-5-5----------------|
A|--2-2-2-2---5-------------------2-2-2-2---5-5-5----------------|
E|------------3---------------------------3-3-3-3----------------|

E|---7--8--9~----------------------------------------------------|
B|---------------------------------------------------------------|
G|--7--8--9------------------------------------------------------|
D|---------------------------------------------------------------|
A|---------------------------------------------------------------|
E|---------------------------------------------------------------|

      A                                     F#m 
E|---------------------------------------------2---2-------------|
B|----2-------2---2-----2---2------------------2---2-------------|
G|----2---2---2-2---2---2-2---2---2h4-2--------2---2-------------|
D|----2---2h4-2-----2h4-2-----2h4-------4p2--4-4-4-4--2h4-2------|
A|--0---0------------------------------------4-4-4-4--------4----|
E|-------------------------------------------2-2-2-2-------------|

    Bm        G                    Bm     G
E|----2-2-2---3-3--3-5/7-5-3-3/5----2-2-2---3-3-3--4/9-7~-4/7-4~-|
B|----3-3-3---3-3--3-5/7-5-3-3/5----3-3-3---3-3-3----------------|
G|----4-4-4---4-4-------------------4-4-4---4-4-4--4/9-7~-4/7-4~-|
D|----4-4-4---5-5-------------------4-4-4---5-5-5----------------|
A|--2-2-2-2---5-------------------2-2-2-2---5-5-5----------------|
E|------------3---------------------------3-3-3-3----------------|

Chorus:
    G         D          A
E|--3-----3---2---2----------------------------------------------|
B|--3-----3---3---3----------------------------------------------|
G|--0-----0---2---2------2-2-2------------2----------------------|
D|--0-----0---0---0------2-2-2------2-3h4---4-3-----2------------|
A|--2-----2---0---0------0-0-0--3-4-------------3h4---0----------|
E|--3-----3------------------------------------------------------|
   All-   I Want  Is You.

    G           D             A
E|---------------------------------------------------------------|
B|----------------------3----------------------------------------|
G|----------0-------2-4---4---2----------------------------------|
D|------0-2---2-0-4-----------2----------------------------------|
A|----2-----------------------0----------------------------------|
E|--3------------------------------------------------------------|
   Everything has got to 
   be just like you want it to-     Because      

Verse:

      A                                     F#m 
E|---------------------------------------------2---2-------------|
B|----2-------2---2-----2---2------------------2---2-------------|
G|----2---2---2-2---2---2-2---2---2h4-2--------2---2-------------|
D|----2---2h4-2-----2h4-2-----2h4-------4p2--4-4-4-4--2h4-2------|
A|--0---0------------------------------------4-4-4-4--------4----|
E|-------------------------------------------2-2-2-2-------------|

    Bm        G                    Bm     G
E|----2-2-2---3-3--3-5/7-5-3-3/5----2-2-2---3-3-3---0--2--3--4---|
B|----3-3-3---3-3--3-5/7-5-3-3/5----3-3-3---3-3-3----------------|
G|----4-4-4---4-4-------------------4-4-4---4-4-4--1--2--3--4----|
D|----4-4-4---5-5-------------------4-4-4---5-5-5----------------|
A|--2-2-2-2---5-------------------2-2-2-2---5-5-5----------------|
E|------------3---------------------------3-3-3-3----------------|

E|---7--8--9~----------------------------------------------------|
B|---------------------------------------------------------------|
G|--7--8--9------------------------------------------------------|
D|---------------------------------------------------------------|
A|---------------------------------------------------------------|
E|---------------------------------------------------------------|

      A                                     F#m 
E|---------------------------------------------2---2-------------|
B|----2-------2---2-----2---2------------------2---2-------------|
G|----2---2---2-2---2---2-2---2---2h4-2--------2---2-------------|
D|----2---2h4-2-----2h4-2-----2h4-------4p2--4-4-4-4--2h4-2------|
A|--0---0------------------------------------4-4-4-4--------4----|
E|-------------------------------------------2-2-2-2-------------|

    Bm        G                    Bm     G
E|----2-2-2---3-3--3-5/7-5-3-3/5----2-2-2---3-3-3----9--7--4--2--|
B|----3-3-3---3-3--3-5/7-5-3-3/5----3-3-3---3-3-3----------------|
G|----4-4-4---4-4-------------------4-4-4---4-4-4--9--7--4--2----|
D|----4-4-4---5-5-------------------4-4-4---5-5-5----------------|
A|--2-2-2-2---5-------------------2-2-2-2---5-5-5----------------|
E|------------3---------------------------3-3-3-3----------------|

Chorus:
    G         D          A
E|--3-----3---2---2----------------------------------------------|
B|--3-----3---3---3----------------------------------------------|
G|--0-----0---2---2------2-2-2------------2----------------------|
D|--0-----0---0---0------2-2-2------2-3h4---4-3-----2------------|
A|--2-----2---0---0------0-0-0--3-4-------------3h4---0----------|
E|--3-----3------------------------------------------------------|
   All-   I Want  Is You.

    G           D             A
E|---------------------------------------------------------------|
B|----------------------3----------------------------------------|
G|----------0-------2-4---4---2----------------------------------|
D|------0-2---2-0-4-----------2----------------------------------|
A|----2-----------------------0----------------------------------|
E|--3------------------------------------------------------------|
   Everything has got to 
   be just like you want it to-     Because     

Solo:
E|----------------------------------------------14---------------|
B|--------------10~--12p10-----12b14r12---12b14----14r12---------|
G|--9~--11p9---------------11------------------------------11~---|
D|-----------11--------------------------------------------------|
A|---------------------------------------------------------------|
E|---------------------------------------------------------------|

E|---------------------------------------------------------------|
B|--10-12-12b15--(15)-15r12-----------------12-12b15--(15)-15r12-|
G|--------------------------11~---12b14r12-----------------------|
D|---------------------------------------------------------------|
A|---------------------------------------------------------------|
E|---------------------------------------------------------------|

E|--------------12---14-----15----17------15----11---------------|
B|---------------------------------------------------------------|
G|--12~---12/13----14--14/15---17---17\15----14------------------|
D|---------------------------------------------------------------|
A|---------------------------------------------------------------|
E|---------------------------------------------------------------|

Verse:      A                                     F#m 
E|---------------------------------------------2---2-------------|
B|----2-------2---2-----2---2------------------2---2-------------|
G|----2---2---2-2---2---2-2---2---2h4-2--------2---2-------------|
D|----2---2h4-2-----2h4-2-----2h4-------4p2--4-4-4-4--2h4-2------|
A|--0---0------------------------------------4-4-4-4--------4----|
E|-------------------------------------------2-2-2-2-------------|

   Bm        G                    Bm     G
E|----2-2-2---3-3--3-5/7-5-3-3/5----2-2-2---3-3-3---0--2--3--4---|
B|----3-3-3---3-3--3-5/7-5-3-3/5----3-3-3---3-3-3----------------|
G|----4-4-4---4-4-------------------4-4-4---4-4-4--1--2--3--4----|
D|----4-4-4---5-5-------------------4-4-4---5-5-5----------------|
A|--2-2-2-2---5-------------------2-2-2-2---5-5-5----------------|
E|------------3---------------------------3-3-3-3----------------|

E|---7--8--9~----------------------------------------------------|
B|---------------------------------------------------------------|
G|--7--8--9------------------------------------------------------|
D|---------------------------------------------------------------|
A|---------------------------------------------------------------|
E|---------------------------------------------------------------|

     A                                     F#m 
E|---------------------------------------------2---2-------------|
B|----2-------2---2-----2---2------------------2---2-------------|
G|----2---2---2-2---2---2-2---2---2h4-2--------2---2-------------|
D|----2---2h4-2-----2h4-2-----2h4-------4p2--4-4-4-4--2h4-2------|
A|--0---0------------------------------------4-4-4-4--------4----|
E|-------------------------------------------2-2-2-2-------------|

    Bm        G                    Bm     G
E|----2-2-2---3-3--3-5/7-5-3-3/5----2-2-2---3-3-3--4/9-7~-4/7-4~-|
B|----3-3-3---3-3--3-5/7-5-3-3/5----3-3-3---3-3-3----------------|
G|----4-4-4---4-4-------------------4-4-4---4-4-4--4/9-7~-4/7-4~-|
D|----4-4-4---5-5-------------------4-4-4---5-5-5----------------|
A|--2-2-2-2---5-------------------2-2-2-2---5-5-5----------------|
E|------------3---------------------------3-3-3-3----------------|

Chorus:
    G         D          A
E|--3-----3---2---2----------------------------------------------|
B|--3-----3---3---3----------------------------------------------|
G|--0-----0---2---2------2-2-2------------2----------------------|
D|--0-----0---0---0------2-2-2------2-3h4---4-3-----2------------|
A|--2-----2---0---0------0-0-0--3-4-------------3h4---0----------|
E|--3-----3------------------------------------------------------|
   All-   I Want  Is You.

    G           D             A
E|---------------------------------------------------------------|
B|----------------------3----------------------------------------|
G|----------0-------2-4---4---2----------------------------------|
D|------0-2---2-0-4-----------2----------------------------------|
A|----2-----------------------0----------------------------------|
E|--3------------------------------------------------------------|
   Everything has got to 
   be just like you want it to-     Because     

Outro:
   G           D             A
E|---------------------------------------------------------------|
B|----------------------3----------------------------------------|
G|----------0-------2-4---4---2-2-2------------2-----------------|
D|------0-2---2-0-4-----------2-2-2------2-3h4---4-3-----2-------|
A|----2-----------------------0-0-0--3-4-------------3h4---0-----|
E|--3------------------------------------------------------------|

    G           D             A
E|---------------------------------------------------------0-----|
B|----------------------3----------------------------------2-----|
G|----------0-------2-4---4---2-2-2------------2-----------2-----|
D|------0-2---2-0-4-----------2-2-2------2-3h4---4-3-----2-2-----|
A|----2-----------------------0-0-0--3-4-------------3h4---0-----|
E|--3------------------------------------------------------------|

E|---------------------------------------------------------------|
B|--2h3p2h3p2h3p2h3p2h3p2~---------------------------------------|
G|---------------------------------------------------------------|
D|---------------------------------------------------------------|
A|---------------------------------------------------------------|
E|---------------------------------------------------------------|

Lyrics:
I dig a pony
Well you can celebrate anything you want
Yes you can celebrate anything you want
Ooh

I do a road hog
Well you can penetrate any place you go
Yes you can penetrate any place you go
I told you so 

All I want is you
Everything has got to be just like you want it to
Because-

I pick a moon dog
Well you can radiate everything you are
Yes you can radiate everything you are
Oh now

I roll a stoney
Well you can imitate everyone you know
Yes you can imitate everyone you know
I told you so 

All I want is you
Everything has got to be just like you want it to
Because-

I feel the wind blow
Well you can indicate everything you see
Yes you can indicate anything you see
Oh now

I load a lorry
Well you can syndicate any boat you row
Yeah you can syndicate any boat you row
I told you so 

All I want is you
Everything has got to be just like you want it to
Because-
Tap to rate this tab
 
# A B C D E F G H I J K L M N O P Q R S T U V W X Y Z