Song name
# A B C D E F G H I J K L M N O P Q R S T U V W X Y Z

Beatles - Get Back tab

(repeat two times)
|------------------------12----------|---------------------|
|--------10-10-10-10-b12---r12-10----|---------------------|
|--10/12--------------------------11-|-------7-5---5-------|
|------------------------------------|---7-9-----7---------|
|------------------------------------|-9-------------------|
|------------------------------------|---------------------|


|---------------------|
|-b7-5----------------|
|------7-b7-5---5-----|
|-------------7-------|
|---------------------|
|---------------------|
Tap to rate this tab
 
# A B C D E F G H I J K L M N O P Q R S T U V W X Y Z