Song name
# A B C D E F G H I J K L M N O P Q R S T U V W X Y Z

Beatles - Im Down tab

    ----------------------------------------------------------------------

   THE BEATLES - I'M DOWN (Lennon & McCartney) BEATLES PAST MASTERS VOL. 1
                          Also released as B side of Help single.

    ----------------------------------------------------------------------

    Tabbed by:PJVillanueva





You tell lies thinking I can't see
You can't cry 'cos you're laughing at me
I'm down (I'm really down)
I'm down (Down on the ground)
I'm down (I'm really down)
How can you laugh when you know I'm down
(How can you laugh) When you know I'm down.

Man buys ring woman throws it away
Same old thing happens everyday
I'm down (I'm really down)
I'm down (Down on the ground)
I'm down (I'm really down)
How can you laugh when you know I'm down
(How can you laugh) When you know I'm down.

       SOLO

We're all alone and there's nobody else
You still moan: "Keep your hands to yourself!"
I'm down (I'm really down)
Oh, babe, I'm down (Down on the ground)
I'm down (I'm really down)
How can you laugh when you know I'm down
(How can you laugh) When you know I'm down.

(Wow! Baby I'm down!)

Whoo, baaby!

Oh babe, you know that I'm down (I'm really down)
I guess I'm down (I'm really down)
I'm down on the ground (I'm really down)
Whoa! Down! (I'm really down)
Oh, babe, I'm upside down
Oh yeh, yeh, yeh, yeh, yeh, I'm down (I'm really down)
Oh, baby I'm down (I'm really down)
I'm feelin' upside down (I'm really down)
Ooh, I'm down (I'm really down)
Oh, baby I'm down, yeh
Oh, baby, I'm down, yeh!
Baby, I'm down (I'm really down)
Oh, baby I'm down (I'm really down)
Oh, baby, baby, baby! (I'm really down)
Oh, baby I'm down (I'm really down)
I'm down, down, down, down, down, down, down, down, down, yeh whoa!






                           
  e|------- ------- ------- -------|------- ------- ------- -------|
  B|-------------------------------|-------------------------------|
  G|-------------------------------|-------------------------------|
  D|-------------------------------|-------------------------------|
  A|-------------------------------|-------------------------------|
  E|-------------------------------|-------------------------------|
    You     tell     lies   thinkin'I  can't    see



                                xxxxx  X    X  X       X    x

  e|------- ------- ------- -------|------- ------- ------- -------|
  B|-------------------------------|-------------------------------|
  G|-------------------------------|-------------------------------|
  D|-------------------------------|-------------------------------|
  A|5------------------------------|-------------------------------|
  E|3------------------------------|-------------------------------|


  e|3------ ------- ------- -------|------- ------- ------- -------|
  B|3------------------------------|-------------------------------|
  G|4------------------------------|-------------------------------|
  D|5------------------------------|-------------------------------|
  A|5------------------------------|-------------------------------|
  E|3------------------------------|-------------------------------|
    You     can't   cry  'cos you're laughing at me     I'm     down




  e|------- ------- ------- -------|------- ------- ------- -------|
  B|-------------------------------|-------------------------------|
  G|-------------------------------|-------------------------------|
  D|5-------5-------5-------5------|5-------5--------5-------5-----|
  A|3-------3-------3-------3------|3-------3--------3-------3-----|
  E|-------------------------------|-------------------------------|

  e|------- ------- ------- -------|------- ------- ------- -------|
  B|-------------------------------|-------------------------------|
  G|-------------------------------|-------------------------------|
  D|-------------------------------|8-----------8------------------|
  A|10------10------12------12-----|10----------10----------10-----|
  E|8-------8-------8-------8------|8-----------8------------8-----|
                                                        I'm     down
           (I'm      really    down)
    Down  


  e|------- ------- ------- -------|------- ------- ------- -------|
  B|-------------------------------|-------------------------------|
  G|-------------------------------|-------------------------------|
  D|-------------------------------|-------------------------------|
  A|5-------5-------5-------5------|5-------5-------5-------5------|
  E|3-------3-------3-------3------|3-------3-------3-------3------|

  e|------- ------- ------- -------|------- ------- ------- -------|
  B|-------------------------------|-------------------------------|
  G|-------------------------------|-------------------------------|
  D|-------------------------------|-------------------------------|
  A|5-------5-------7-------7---x--|5--5----7---5---5-------5------|
  E|3-------3-------3-------3---x--|3--3----3---3---3-------3------|
                                                       I'm      down

            (Down  on  the      ground)
    Down

  e|------- ------- ------- -------|------- ------- ------- -------|
  B|-------------------------------|-------------------------------|
  G|-------------------------------|-------------------------------|
  D|5-------5-------5-------5------|5-------5--------5-------5-----|
  A|3-------3-------3-------3------|3-------3--------3-------3-----|
  E|-------------------------------|-------------------------------|

  e|------- ------- ------- -------|------- ------- ------- -------|
  B|-------------------------------|-------------------------------|
  G|-------------------------------|-------------------------------|
  D|-------------------------------|8-----------8------------------|
  A|10------10------12------12-----|10----------10----------10-----|
  E|8-------8-------8-------8------|8-----------8------------8-----|

            (I'm    really     down)
    Down
    
  e|------- ------- ------- -------|------- ------- ------- -------|
  B|-------------------------------|-------------------------------|
  G|-------------------------------|-------------------------------|
  D|7------------------------------|-------------------------------|
  A|5-----------5------------------|-------------------------------|
  E|------------3------------------|-------------------------------|

  e|10----- ----10- ------- -------|------- ------- ------- -------|
  B|10----------12-----------------|-------------------------------|
  G|11----------12-----------------|-------------------------------|
  D|12----------12-----------------|-------------------------------|
  A|12----------10-----------------|-------------------------------|
  E|10-----------------------------|-------------------------------|
   How can  you laugh      when you know I'm    down


                                                       xxxxxx

  e|------- ------- ------- -------|------- ------- ------- -------|
  B|-------------------------------|-------------------------------|
  G|-------------------------------|-------------------------------|
  D|7------------------------------|-------------------------------|
  A|5-----------5------------------|-------------------------------|
  E|------------3------------------|-------------------------------|

  e|10----- ----10- ------- -------|------- ------- ------- -------|
  B|10----------12-----------------|-------------------------------|
  G|11----------12-----------------|-------------------------------|
  D|12----------12-----------------|-------------------------------|
  A|12----------10-----------------|-------------------------------|
  E|10-----------------------------|-------------------------------|
                           when you know I'm    down
   How can  you laugh


    00:21

  e|------- ------- ------- -------|------- ------- ------- -------|
  B|-------------------------------|-------------------------------|
  G|-------------------------------|-------------------------------|
  D|-------------------------------|-------------------------------|
  A|5------------------------------|-------------------------------|
  E|3------------------------------|-------------------------------|


  e|3------ ------- ------- -------|------- ------- ------- -------|
  B|3------------------------------|-------------------------------|
  G|4------------------------------|-------------------------------|
  D|5------------------------------|-------------------------------|
  A|5------------------------------|-------------------------------|
  E|3------------------------------|-------------------------------|
    Man     buys    ring    woman throws    it away




  e|------- ------- ------- -------|------- ------- ------- -------|
  B|-------------------------------|-------------------------------|
  G|-------------------------------|-------------------------------|
  D|-------------------------------|-------------------------------|
  A|5------------------------------|-------------------------------|
  E|3------------------------------|-------------------------------|


  e|3------ ------- ------- -------|------- ------- ------- -------|
  B|3------------------------------|-------------------------------|
  G|4------------------------------|-------------------------------|
  D|5------------------------------|-------------------------------|
  A|5------------------------------|-------------------------------|
  E|3------------------------------|-------------------------------|
    Same    old    thing    happen  everyday           I'm      down




  e|------- ------- ------- -------|------- ------- ------- -------|
  B|-------------------------------|-------------------------------|
  G|-------------------------------|-------------------------------|
  D|5-------5-------5-------5------|5-------5--------5-------5-----|
  A|3-------3-------3-------3------|3-------3--------3-------3-----|
  E|-------------------------------|-------------------------------|

  e|------- ------- ------- -------|------- ------- ------- -------|
  B|-------------------------------|-------------------------------|
  G|-------------------------------|-------------------------------|
  D|-------------------------------|8-----------8------------------|
  A|10------10------12------12-----|10----------10----------10-----|
  E|8-------8-------8-------8------|8-----------8------------8-----|
                                                       I'm      down
            (I'm    really     down)
    Down


  e|------- ------- ------- -------|------- ------- ------- -------|
  B|-------------------------------|-------------------------------|
  G|-------------------------------|-------------------------------|
  D|-------------------------------|-------------------------------|
  A|5-------5-------5-------5------|5-------5-------5-------5------|
  E|3-------3-------3-------3------|3-------3-------3-------3------|

  e|------- ------- ------- -------|------- ------- ------- -------|
  B|-------------------------------|-------------------------------|
  G|-------------------------------|-------------------------------|
  D|-------------------------------|-------------------------------|
  A|5-------7-------5-------7------|7-------7-------5-------5------|
  E|3-------3-------3-------3------|3-------3-------3-------3------|
                                                      I'm       down

            (Down  on  the      ground)
    Down

  e|------- ------- ------- -------|------- ------- ------- -------|
  B|-------------------------------|-------------------------------|
  G|-------------------------------|-------------------------------|
  D|5-------5-------5-------5------|5-------5--------5-------5-----|
  A|3-------3-------3-------3------|3-------3--------3-------3-----|
  E|-------------------------------|-------------------------------|

   e|------- ------- ------- -------|------- ------- ------- ------|
  B|-------------------------------|-------------------------------|
  G|-------------------------------|-------------------------------|
  D|-------------------------------|8-----------8------------------|
  A|10------10------12------12-----|10----------10----------12-----|
  E|8-------8-------8-------8------|8-----------8------------8-----|

            (I'm    really     down)
    Down

  e|------- ------- ------- -------|------- ------- ------- -------|
  B|-------------------------------|-------------------------------|
  G|-------------------------------|-------------------------------|
  D|7------------------------------|-------------------------------|
  A|5-----------5------------------|-------------------------------|
  E|------------3------------------|-------------------------------|

  e|10----- ----10- ------- -------|------- ------- ------- -------|
  B|10----------12-----------------|-------------------------------|
  G|11----------12-----------------|-------------------------------|
  D|12----------12-----------------|-------------------------------|
  A|12----------10-----------------|-------------------------------|
  E|10-----------------------------|-------------------------------|
   How can  you laugh      when you know I'm    down


                                                       xxxxxx

  e|------- ------- ------- -------|------- ------- ------- -------|
  B|-------------------------------|-------------------------------|
  G|-------------------------------|-------------------------------|
  D|7------------------------------|-------------------------------|
  A|5-----------5------------------|-------------------------------|
  E|------------3------------------|-------------------------------|

  e|------- ----3-- ------- -------|------- ------- ------- -------|
  B|3-----------3------------------|-------------------------------|
  G|5-----------4------------------|-------------------------------|
  D|4-----------5------------------|-------------------------------|
  A|5-----------5------------------|-------------------------------|
  E|------------3------------------|-------------------------------|
                           when you know I'm    down
   How can  you laugh

    SOLO
    00:41

    x

  e|------- ------- ------- -------|------- ------- ------- -------|
  B|-------------------------------|-------------------------------|
  G|-------------------------------|-------------------------------|
  D|----------------3--------------|-------------------------------|
  A|--------3-H-5-------5-------1-~|--------1-------1---3-~--------|
  E|3------------------------------|-----------3-------------------|



   x                                x       x     x X   X   x

  e|------- ------- ------- -------|------- ------- ------- -------|
  B|-------------------------------|-------------------------------|
  G|-------------------------------|-------------------------------|
  D|----------------3-----------3--|5B7-----5B7-----5B7R5---3------|
  A|--------3-H-5-------5----------|-------------------------------|
  E|3------------------------------|-------------------------------|
                                            Wow!




  e|------- ------- ------- -------|------- ------- ------- -------|
  B|-------------------------------|-------------------------------|
  G|----------------3-----------3--|5B7-----5B7-----5B7R5---3------|
  D|--------3-H-5-------5----------|-------------------------------|
  A|3------------------------------|-------------------------------|
  E|-------------------------------|-------------------------------|





  e|------- ------- ------- -------|------- ------- ------- -------|
  B|-------------------------------|3-~-------------3-~------------|
  G|----------------3--------------|-------------------------------|
  D|5-------5-----------5----------|-------------------------------|
  A|-------------------------------|-------------------------------|
  E|-------------------------------|-------------------------------|





  e|------- ------- ------- -------|------- ------- ------- -------|
  B|3-~-------------3-~------------|3-~-----3-~-----3-~------------|
  G|-------------------------------|------------------------3-~----|
  D|-------------------------------|-------------------------------|
  A|-------------------------------|-------------------------------|
  E|-------------------------------|-------------------------------|





  e|------- ------- ------- -------|------- ------- ------- -------|
  B|-------------------------------|-------------------------------|
  G|-------------------------------|-------------------------------|
  D|5------------------------------|--------3----------------------|
  A|--------------------1-----3---3H5----------------3------1------|
  E|-----------------3-------------|-------------------------------|




    00:59

  e|------- ------- ------- -------|------- ------- ------- -------|
  B|-------------------------------|-------------------------------|
  G|-------------------------------|-------------------------------|
  D|-------------------------------|-------------------------------|
  A|-------------------------------|-------------------------------|
  E|3------------------------------|--------------------1-/-2----/-|


  e|3------ ------- ------- -------|------- ------- ------- -------|
  B|3------------------------------|-------------------------------|
  G|4------------------------------|-------------------------------|
  D|5------------------------------|-------------------------------|
  A|5------------------------------|-------------------------------|
  E|3------------------------------|-------------------------------|
    We're   all alone    and there's nobody     else


                                    X       x     X X   X   x

  e|------- ------- ------- -------|------- ------- ------- -------|
  B|-------------------------------|-------------------------------|
  G|-------------------------------|-------------------------------|
  D|-------------------------------|-------------------------------|
  A|-------------------------------|-------------------------------|
  E|3------------------------------|-------------------------------|


  e|3------ ------- ------- -------|------- ------- ------- -------|
  B|3------------------------------|-------------------------------|
  G|4------------------------------|-------------------------------|
  D|5------------------------------|-------------------------------|
  A|5------------------------------|-------------------------------|
  E|3------------------------------|-------------------------------|
    You     still   moan: "Keep your hands  to yourself!"  I'm down



  e|------- ------- ------- -------|------- ------- ------- -------|
  B|-------------------------------|-------------------------------|
  G|-------------------------------|-------------------------------|
  D|5-------5-------5-------5------|5-------5--------5-------5-----|
  A|3-------3-------3-------3------|3-------3--------3-------3-----|
  E|-------------------------------|-------------------------------|

   e|------- ------- ------- -------|------- ------- ------- ------|
  B|-------------------------------|-------------------------------|
  G|-------------------------------|-------------------------------|
  D|-------------------------------|8--------8--8----8-------------|
  A|10------10------12------12-----|10------12--10--10------12-----|
  E|8-------8-------8-------8------|8-----------8----8-------8-----|
                                                       I'm      down
            (I'm    really     down)
    Down


  e|------- ------- ------- -------|------- ------- ------- -------|
  B|-------------------------------|-------------------------------|
  G|-------------------------------|-------------------------------|
  D|-------------------------------|-------------------------------|
  A|5-------5-------5-------5------|5-------5-------5-------5------|
  E|3-------3-------3-------3------|3-------3-------3-------3------|

  e|------- ------- ------- -------|------- ------- ------- -------|
  B|-------------------------------|-------------------------------|
  G|-------------------------------|-------------------------------|
  D|-------------------------------|3---------------3--------------|
  A|5-------5-------7-------7------|5-------7--5----5-------7------|
  E|3-------3-------3-------3------|3-------3--3----3-------3------|
                                                      I'm       down

            (Down  on  the      ground)
    Down

  e|------- ------- ------- -------|------- ------- ------- -------|
  B|-------------------------------|-------------------------------|
  G|-------------------------------|-------------------------------|
  D|5-------5-------5-------5------|5-------5--------5-------5-----|
  A|3-------3-------3-------3------|3-------3--------3-------3-----|
  E|-------------------------------|-------------------------------|

   e|------- ------- ------- -------|------- ------- ------- ------|
  B|-------------------------------|-------------------------------|
  G|-------------------------------|-------------------------------|
  D|-------------------------------|8----------------8-------------|
  A|10------10------12------12-----|10--------12-----10------12----|
  E|8-------8-------8-------8------|8---------8------8-------8-----|

            (I'm    really     down)
    Down

  e|------- ------- ------- -------|------- ------- ------- -------|
  B|-------------------------------|-------------------------------|
  G|-------------------------------|-------------------------------|
  D|7------------------------------|-------------------------------|
  A|5-----------5------------------|-------------------------------|
  E|------------3------------------|-------------------------------|

  e|10----- ----10- ------- -------|------- ------- ------- -------|
  B|10----------12-----------------|-------------------------------|
  G|11----------12-----------------|-------------------------------|
  D|12----------12-----------------|-------------------------------|
  A|12----------10-----------------|-------------------------------|
  E|10-----------------------------|-------------------------------|
   How can  you laugh      when you know I'm    down


                                                       xxxxxx

  e|------- ------- ------- -------|------- ------- ------- -------|
  B|-------------------------------|-------------------------------|
  G|-------------------------------|-------------------------------|
  D|7------------------------------|-------------------------------|
  A|5-----------5------------------|-------------------------------|
  E|------------3------------------|-------------------------------|

  e|------- ----3-- ------- -------|------- ------- ------- -------|
  B|3-----------3------------------|-------------------------------|
  G|5-----------4------------------|-------------------------------|
  D|4-----------5------------------|-------------------------------|
  A|5-----------5------------------|-------------------------------|
  E|------------3------------------|-------------------------------|
                           when you know I'm    down
   How can  you laugh


   Baby I'm down

    ORGAN SOLO & CODA  with the same chords 
    01:20 .....

Whoo, baaby!

Oh babe, you know that I'm down (I'm really down)
I guess I'm down (I'm really down)
I'm down on the ground (I'm really down)
Whoa! Down! (I'm really down)
Oh, babe, I'm upside down
Oh yeh, yeh, yeh, yeh, yeh, I'm down (I'm really down)
Oh, baby I'm down (I'm really down)
I'm feelin' upside down (I'm really down)
Ooh, I'm down (I'm really down)
Oh, baby I'm down, yeh
Oh, baby, I'm down, yeh!
Baby, I'm down (I'm really down)
Oh, baby I'm down (I'm really down)
Oh, baby, baby, baby! (I'm really down)
Oh, baby I'm down (I'm really down)
I'm down, down, down, down, down, down, down, down, down, yeh whoa!













        B  Bend
        R  Release
        /  Slide up
        \  Slide down
        H  Hammer-on
        P  Pull-off
        ~  Vibrato
        +  Harmonic
        x  Mute note
        .  Play note like a dot in standard notation
        ^  Ties two notes together
        (. Pause



Tap to rate this tab
 
# A B C D E F G H I J K L M N O P Q R S T U V W X Y Z