Beatles - The Fool On The Hill chords

Highlighted       Show chord diagrams
THE FOOL ON THE HILL	-	the Beatles

 D6
  Day after day
 G/E
  alone on a hill
   D6
the man with the fool grin
          G/E
is keeping perfectly still, But
 Em             A7
  nobody wants to know him,
        D6                  Bm
they can see that he's just a fool
   Em               A7
and he never gives an answer.

Chorus
       Dm              Dm/C
But the fool on the hill
        Bb
sees the sun going down and the
 C
  eyes in his head
       Dsus2         Dm      D6
see the world spinning round

 D6              G/E
  Well on the way    a head in a cloud,
   D6
the man of thousand voices
       G/E
talking perfectly loud,
   Em         A7
But nobody ever hears him,
      D6                 Bm
or the sound he appears to make
   Em               A7
and he never seems to notice.

Chorus
       Dm              Dm/C
But the fool on the hill
        Bb
sees the sun going down and the
 C
  eyes in his head
       Dsus2         Dm      D6
see the world spinning round

Break:	D6	G	D6	G	G5/F
e |-----2---2---2---2----3---3---3---3-----2---2---2---2----3---3---3---3-|
B |-----0---0---0---0----3---3---3---3-----0---0---0---0----3---3---3---3-|
G |-----2---2---2---2----0---0---0---0-----2---2---2---2----0---0---0---0-|
D |---0-------0--------0-------0---------0-------0--------0-------0-------|
A |-------0-------0--------------------------0-------0--------------------|
E |------------------------3------3---------------------------3------2----|

 Em             A7
  nobody seems to like him,
        D6                    Bm
they can tell what he wants to do
   Em               A7
and he never shows his feelings.

Chorus
       Dm              Dm/C
But the fool on the hill
        Bb
sees the sun going down and the
 C
  eyes in his head
       Dsus2         Dm      D6
see the world spinning round

Break:	D6	G	D6	G	G5/F
e |-----2---2---2---2----3---3---3---3-----2---2---2---2----3---3---3---3-|
B |-----0---0---0---0----3---3---3---3-----0---0---0---0----3---3---3---3-|
G |-----2---2---2---2----0---0---0---0-----2---2---2---2----0---0---0---0-|
D |---0-------0--------0-------0---------0-------0--------0-------0-------|
A |-------0-------0--------------------------0-------0--------------------|
E |------------------------3------3---------------------------3------2----|

   Em              A7
but he never listens to them
   D6               Bm
he knows that they're fools
 Em        A7
  They don't like him.

Chorus
       Dm              Dm/C
But the fool on the hill
        Bb
sees the sun going down and the
 C
  eyes in his head
       Dsus2         Dm      D6
see the world spinning round

Break:	D6	G	D6	G	G5/F
e |-----2---2---2---2----3---3---3---3-----2---2---2---2----3---3---3---3-|
B |-----0---0---0---0----3---3---3---3-----0---0---0---0----3---3---3---3-|
G |-----2---2---2---2----0---0---0---0-----2---2---2---2----0---0---0---0-|
D |---0-------0--------0-------0---------0-------0--------0-------0-------|
A |-------0-------0--------------------------0-------0--------------------|
E |------------------------3------3---------------------------3------2----|


D6	xx0202
G/E	020033
A7	x02020
Dsus2	xx0230


there are many chords on beatles-songs. the effort was: playable on 1 guitar, and
written on 1 site of an a4-paper.
chords found using powertab freeware
Tap to rate this tab
 
# A B C D E F G H I J K L M N O P Q R S T U V W X Y Z