Song name
# A B C D E F G H I J K L M N O P Q R S T U V W X Y Z

Beatles - And Your Bird Can Sing tab

AND YOUR BIRD CAN SING (LENNON & MCCARTNEY)

Solo 1:
E
E-----------------|----------------|-------|----------------------|
B---9-7-5-7-5-4-5-|4-2-0---------5-|-9-9-9-|9---------------------|
G---9-8-6-8-6-4-6-|4-2-1-2-1-2-4-6-|-9-9-9-|9-9------9------------|
D-----------------|------4-2-4-6---|-------|--9------9-h11-9------|
A-----------------|----------------|-------|----11-12-------12-11-|
E-0---------------|----------------|-------|----------------------|

E
You tell me that you've got every thing you want
And your bird can sing
                  F#m A             E
But you don't get me   You don't get me

Fill riff:
E---------------------|
B---------------------|
G-9------9------------|
D-9------9-h11-9------|
A---11-12-------12-11-|
E---------------------|

E
You say you've seen seven wonders
And your bird is green
                  F#m A             E
But you can't see me   You can't see me

Bridge:
G#m                  G+                   B
When your prize po--sessions             start to weigh you 
E---------4---------|---------3---------|---------2----------|
B------4------4-----|------4------4-----|------4------4------|
G---4-----------4---|---4-----------4---|---4-----------4----|
D-6---------------6-|-5---------------5-|-4----------------4-|
A-------------------|-------------------|--------------------|
E-------------------|-------------------|--------------------|

C#m                  E                   F#m
down                 Look in my di-------rection     I'll be
E--------4----------|--------0----------|--------2----------|
B-----5------5------|-----0-------0-----|-----2-------2-----|
G---6----------6----|---1-----------1---|---2-----------2---|
D-6--------------6--|-2---------------2-|-4---------------4-|
A-------------------|-------------------|-------------------|
E-------------------|-------------------|-------------------|

                     B
'round               I'll be 'round
E--------2----------|--------2----------|
B-----2-------2-----|-----4-------4-----|
G---2-----------2---|---4-----------4---|
D-4---------------2-|-4---------------4-|
A-------------------|-------------------|
E-------------------|-------------------|

Repeat solo 1 then play solo 2.

Solo 2:
F#m                   A                    E
E--------------------|---------------9-11-|-12-12-12-|-------|
B-7-9-10-12-10-9-7-5-|-4-5-7-9-10-12------|--9--9--9-|-9-9-9-|
G--------------------|---------------9-11-|----------|-9-9-9-|
D-7-9-10-12-10-9-7-5-|-4-5-7-9-10-12------|----------|---9-9-|
A--------------------|--------------------|----------|-----7-|
E--------------------|--------------------|----------|-------|

2nd bridge: play same as 1st bridge
G#m               G+      B                 C#m
When your bird is broken  Will it bring you down?
E          F#m                              B
You may be awoken   I'll be 'round I'll be 'round

Verse:
E
Tell me that you've heard every sound there is
                                            F#m
And your bird can swing  But you can't hear me
A              E
You can't hear me

Repeat solo 1, then solo 2, then play end solo.

End Solo:
E
E---12-11-9-11-9-7-9-|---12-11-9-11-9-7-9-|---12-11-9-11-9-7-9-|-0-|
B----9---------------|----9---------------|----9---------------|-2-|
G------11-9-11-9-8-9-|------11-9-11-9-8-9-|------11-9-11-9-8-9-|-2-|
D--------------------|--------------------|--------------------|-2-|
A--------------------|--------------------|--------------------|-0-|
E-0------------------|-0------------------|-0------------------|---|

Alternate Solo 2: (easier to play but doesn't sound as good)
E----------------------|-----------------9-11-|-12-12-12-|-------|
B-7--9-10-12-10--9-7-5-|-4-5-7--9-10-12-10-10-|--9--9--9-|-9-9-9-|
G-8-10-11-13-11-10-8-6-|-4-6-8-10-11-13-------|----------|-9-9-9-|
D----------------------|----------------------|----------|---9-9-|
A----------------------|----------------------|----------|-----7-|
E----------------------|----------------------|----------|-------|

Alternate End Solo: (easier to play but doesn't sound as good)
E-----------------|-----------------|-----------------|-0-|
B---9-7-5-7-5-4-5-|---9-7-5-7-5-4-5-|---9-7-5-7-5-4-5-|-2-|
G---9-8-6-8-6-4-6-|---9-8-6-8-6-4-6-|---9-8-6-8-6-4-6-|-2-|
D-----------------|-----------------|-----------------|-2-|
A-----------------|-----------------|-----------------|-0-|
E-0---------------|-0---------------|-0---------------|---|

Playing tips:

When playing the bridges, just finger the indicated bar chords 
and pick up and down the highest four strings. Don't mute the notes. 

When playing notes that are two strings apart, pick downward on the lower
string with the pick and pluck upward on the upper string with the middle
finger. Try to get the same volume on both strings.

At the end of solo 2, just play the middle notes of a high E bar chord.

Tabbed by Bruce51


Tap to rate this tab
 
# A B C D E F G H I J K L M N O P Q R S T U V W X Y Z