Song name
# A B C D E F G H I J K L M N O P Q R S T U V W X Y Z

Beatles - Ive Got A Feeling tab

    --------------------------------------------------------------

    THE BEATLES - I'VE GOT A FEELING (Lennon & McCartney) From LET
                  IT BE NAKED album. Released 18th November 2003.

    --------------------------------------------------------------

    Tabbed by:PJVillanueva





    I've got a feeling, a feeling deep inside
    Oh yeah, Oh yeah
    I've got a feeling, a feeling I can't hide
    No no. (No) Oh no, No no
    Yeah Yeah I've got a feeling

    Oh please believe me, I'd hate to miss the train
    Oh yeah, Oh yeah
    And if you leave me I won't be late again
    Oh no, Oh no, Oh no
    Yeah Yeah I've got a feeling yeah
    I got a feeling

    All these years I've been wandering around
    Wondering how come nobody told me
    All that I was looking for was somebody
    Who looked like you

    I've got a feeling that keeps me on my toes
    Oh yeah, Oh yeah
    I've got a feeling, i think that everybody knows
    Oh yeah, Oh yeah, Oh Yeah
    Yeah Yeah I've got a feeling

    Ev'rybody had a hard year
    Ev'rybody had a good time
    Ev'rybody had a wet dream
    Ev'rybody saw the sunshine
    Oh yeah, Oh yeah. Oh Yeah

    Ev'rybody had a good year
    Ev'rybody let their hair down
    Ev'rybody pulled their socks up
    Ev'rybody put their foot down
    Oh yeah, Oh yeah



                                     
  
  e|------- 5------ ------- 5------|------- 5------ ------- 5------|
  B|--------2---------3------------|--------2---------3---------3--|
  G|----2-------------2---------2--|----2-------------2---------2--|
  D|--------------2H4---2----------|--------------2H4---2-------2--|
  A|0-------0---0------------------|0-------0---0---------------0--|
  E|-------------------------------|-------------------------------|

  
    00:05

  e|------- 5------ ------- 5------|------- 5------ ------- 5------|
  B|--------2---------3------------|--------2---------3---------3--|
  G|----2-------------2---------2--|----2-------------2---------2--|
  D|--------------2H4---2----------|--------------2H4---2-------2--|
  A|0-----------0------------------|0-----------0---------------0--|
  E|-------------------------------|-------------------------------|
        I've  a feeling         a   feeling deep            Oh  yeah 
            got                                 inside



  e|------- 5------ ------- 5------|------- 5------ ------- 5------|
  B|--------2---------3---------3--|--------2---------3------------|
  G|----2-------------2---------2--|----2-------------2---------2--|
  D|--------------2H4---2-------2--|--------------2H4---2-------2--|
  A|0-----------0-------0-------0--|0-----------0---------------0--|
  E|-------------------------------|-------------------------------|
                            Oh  yeah


    00:17

  e|------- 5------ ------- 5------|------- 5------ ------- 5------|
  B|--------2---------3------------|--------2---------3------------|
  G|----2-------------2---------2--|----2-------------2---------2--|
  D|--------------2H4---2----------|--------------2H4---2----------|
  A|0-----------0------------------|0-----------0---------------0--|
  E|-------------------------------|-------------------------------|
        I've  a feeling,        a   feeling I can't hide    No  no
            got



  e|------- 5------ ------- 5------|------- 5------ ------- 5------|
  B|--------2---------3------------|--------2---------3---------3--|
  G|----2-------------2---------2--|----2-------------2---------2--|
  D|--------------2H4---2-------2--|--------------2H4---2-------2--|
  A|0-----------0-------0-------0--|0-----------0-------0-------0--|
  E|-------------------------------|-------------------------------|
       (No)                 Oh  no                          No  no


    00:28

  e|0-0-0-- 0-0-0-- 0-0-0-- 0-0-0--|0------ 3------ 2------ -------|
  B/8-8-8--/8-8-8--/8-8-8--/8-8-8--|0-------3-------3--------------|
  G/9-9-9--/9-9-9--/9-9-9--/9-9-9--|1-------0-------2--------------|
  D|-------------------------------|2-------0-------0--------------|
  A|-------------------------------|2-------2----------------------|
  E|-------------------------------|0-------3----------------------|

  e/3-3-3--/3-3-3--/3-3-3--/3-3-3--|------- ------- ------- -------|
  B/5-5-5--/5-5-5--/5-5-5--/5-5-5--|-------------------------------|
  G|0-0-0---0-0-0---0-0-0---0-0-0--|-------------------------------|
  D|-------------------------------|----------------0--------------|
  A|-------------------------------|------0-1-2-3-4----------------|
  E|-------------------------------|0-2-3--------------------------|
                                                        I've  a feeling
                                                            got


  e|------- 5------ ------- 5------|------- 5------ ------- 5------|
  B|--------2---------3-----3------|--------2---------3-----3------|
  G|----2-------------2---------2--|----2-------------2---------2--|
  D|--------------2H4---2----------|--------------2H4---2----------|
  A|0-----------0------------------|0-----------0------------------|
  E|-------------------------------|-------------------------------|
   
  e|----9\- --5---- 5-----5 -------|----9\- --5---- 5-----5 -------|
  B|---10\----5-----7H8---7--------|---10\----5-----7H8---7--------|
  G|----9\----6-----7-----7--------|----9\----6-----7-----7--------|
  D|-------------------------------|-------------------------------|
  A|-------------------------------|-------------------------------|
  E|-------------------------------|-------------------------------|



    00:40

  e|----5-- ------- ------- 5------|------- ------- ------- 5------|
  B|----2---2---2-2H3-3-----3---3--|2-----2---2---2H3---3---3---3--|
  G|----2---2---2-2---2-----2---2--|2-----2---2---2-----2---2---2--|
  D|--------2---2-2H4-4---------4--|2-----2---2---2H4---4---4---4--|
  A|0-------0---0---------------0--|0---------------0---0---0---0--|
  E|-------------------------------|-------------------------------|

  e|----9\- --5---- 5-----5 -------|------- ------- ------- 5------|
  B|---10\----5-----7H8---7-----x--|----x-------------------7------|
  G|----9\----6-----7-----7-----x--|----x-----------7---7---7------|
  D|----------------------------x--|----x-------------------7------|
  A|-------------------------------|------------------------5------|
  E|-------------------------------|-------------------------------|
        Oh  please      me,       I'd   to      the         Oh  yeah
                believe             hate  miss    train



  e|------- 5------ ------- 5------|----5-- ------- ------- 5------|
  B|2-------2---2-2H3-3-----3---3--|2---2---2---2-2H3-3-----3---3--|
  G|2---2---2---2-2---2-----2---2--|2---2---2---2-2---2-----2---2--|
  D|2-------2---2-2H4-4-----4---4--|2-------2---2-2H4-4-----4---4--|
  A|0-------0-----0---------0---0--|0-------0---0---0-0---------0--|
  E|-------------------------------|-------------------------------|

  e|------- 5------ ------- 5------|------- 5-----5 --5---- 5------|
  B|--------5---------------7------|--------5-----7---7-----7------|
  G|--------6---------------7------|--------6-----7---7-----7-----5/
  D|7---7---7---------------7------|--------7-----7---7-----7------|
  A|--------7---------------5------|--------7-----5---5-----5------|
  E|--------5----------------------|--------5----------------------|
                            Oh  yeah


    00:52

  e|----5-- ------- --5---- -------|------- --5---- ------- -------|
  B|2---2---2---2-2H3-3-----3------|2---2-2-2-----2-3---3---3---3--|
  G|2---2---2---2-2---2-----2---2--|2---2-2-2-----2-2---2---2---2--|
  D|2---2---2---2-2H4-4-----4---4--|2---2-2-2-----2-4-------4------|
  A|0---0---0-------------------0--|0---0---0-------0-------0------|
  E|-------------------------------|-------------------------------|

  e|------- 5-----5 --5---- 5------|------- 5-----5 --5---- 5------|
  B|--------5-----7---7-----7------|--------5-----7---7-----7------|
  G|6-------6-----7---7-----7-----5/6-------6-----7---7-----7------|
  D|--------7-----7---7-----7------|--------7-----7---7-----7------|
  A|--------7-----5---5-----5------|--------7-----5---5-----5------|
  E|--------5----------------------|--------5----------------------|
        And if  you     me        I won't late  again       Oh  no
                  leave                 be



  e|----5-- ------- --5---- -------|----5-- 5------ ------- -------|
  B|2---2---2---2-2H3-3-3---3---3--|2---2---2---2-2H3-3-----3---3--|
  G|2---2---2---2-2---2-2---2---2--|2---2---2---2-2---2-----2---2--|
  D|2---2---2---2-2H4-4-4---4---4--|2---2---2---2-2H4-4-----4---4--|
  A|0---0-------0---0-0-0---0------|0---0---0---0-0---0---------0--|
  E|-------------------------------|-------------------------------|

  e|------- 5-----5 ------- 5------|5------ 5-----5 --5---- 5------|
  B|--------5-----5H7---x---7------|5-------5-----5---8-----7------|
  G|6-------6-----6H7---x---7------|6-------6-----6---7-----7------|
  D|--------7-----7-----x---7------|7-------7-----7---7-----7------|
  A|--------7-----5---------5------|7-------7-----7---5-----5------|
  E|--------5----------------------|5-------5-----5----------------|
                            Oh  no                            Oh  no



  e|0-0-0-- 0-0-0-- 0-0-0-- 0-0-0--|0------ 3------ 2------ -------|
  B/8-8-8--/8-8-8--/8-8-8--/8-8-8--|0-------3-------3--------------|
  G/9-9-9--/9-9-9--/9-9-9--/9-9-9--|1-------0-------2--------------|
  D|-------------------------------|2-------0-------0--------------|
  A|-------------------------------|2-------2----------------------|
  E|-------------------------------|0-------3----------------------|

  e/3-3-3--/3-3-3--/3-3-3--/3-3-3--|------- ------- ------- -------|
  B/5-5-5--/5-5-5--/5-5-5--/5-5-5--|-------------------------------|
  G|0-0-0---0-0-0---0-0-0---0-0-0--|-------------------------------|
  D|-------------------------------|----------------0--------------|
  A|-------------------------------|------0-1-2-3-4----------------|
  E|-------------------------------|0-2-3--------------------------|
                yeah              yeah                  I've  a feeling
                                                            got


  e|------- ------- ------- -------|------- ------- ------- -------|
  B|----------------2H3---3-----2--|--------2-----2H3-3-----3------|
  G|----2-----------2-----2-----2--|--------------2---2-----2------|
  D|----------------2H4---4-----2--|----2---------2H4-4-----4------|
  A|0------------------------------|0------------------------------|
  E|-------------------------------|-------------------------------|

  e|---12\- -------10------ --10---|------- --9----10----10 -------| 
  B|---14\---10-----7H8---7--------|---14\---10-----7H8---7--------|
  G|---14\----9-----7-----7--------|---14\----9-----7-----7--------|
  D|----------------7H9---7--------|----------------7H9---7--------|
  A|-------------------------------|-------------------------------|
  E|-------------------------------|-------------------------------|
          yeah                        I got   feeling
                                          a


    01:15

  e|0---0-0 0---0-0 0-0-0-0 0-0-0-3|----3-3 3---3-3 3-3-3-3 3-3-3-5|
  B|3---3-3-3---3-3-3-3-3-3-3-3-3-6|----6-6-6---6-6-6-6-6-6-6-6-6-7|
  G|1---1-1-1---1-1-1-1-1-1-1-1-1-4|----4-4-4---4-4-4-4-4-4-4-4-4-5|
  D|2---2-2-2---2-2-2-2-2-2-2-2-2-x|----x-x-x---x-x-x-x-x-x-x-x-x-7|
  A|2---2-2-2---2-2-2-2-2-2-2-2-2-5|----5-5-5---5-5-5-5-5-5-5-5-5-5|
  E|0---0-0-0---0-0-0-0-0-0-0-0-0-3|----3-3-3---3-3-3-3-3-3-3-3-3--|

  e|------- ------- ------- --R----|------- ------- ------- -------|
  B|--------1517----17171717171512-|---12----------------12-----12-|
  G|----------B----B---------------|---1214-R-1214--1214-1214---12-|
  D|-------------------------------|-----B------B-----B----B-------|
  A|-------------------------------|-------------------------------|
  E|-------------------------------|-------------------------------|





  e|--5-5-5 5-5-5-5 5-5-5-5 5-5----|5------ ------- ------- -------|
  B|--7-7-7-7-7-7-7-7-7-7-7-7-7----|5------------------------------|
  G|--5-5-5 5-5-5-5-5-5-5-5 5-5----|6------------------------------|
  D|--7-7-7-7-7-7-7-7-7-7-7-7-7----|7------------------------------|
  A|--5-5-5 5-5-5-5-5-5-5-5 5-5----|7------------------------------|
  E|-------------------------------|5------------------------------|

  e|------- ------- ------- --R----|------- ------- ------- -------|
  B|---1315-----------151515151310-|-------------------------------|
  G|-----B-------------------------|--------7B9~9-~-9-~-9-~-9-~-9-~|
  D|-------------------------------|-------------------------------|
  A|-------------------------------|-------------------------------|
  E|-------------------------------|-------------------------------|





  e|------- ------- ------- -------|
  B|-------------------------------|
  G|8-~-8-~-8-~-8-~-7-~-7-~-5B6----|
  D|----------------------------7--|
  A|-------------------------------|
  E|-------------------------------|



    01:30
    I've got a feeling that keeps me on my toes
    Oh yeah, Oh yeah
    I've got a feeling, I think that everybody knows
    Oh yeah, Oh yeah, Oh Yeah
    Yeah yeah I've got a feeling

    02:04
    Ev'rybody had a hard year
    Ev'rybody had a good time
    Ev'rybody had a wet dream
    Ev'rybody saw the sunshine
    Oh yeah, Oh yeah. Oh Yeah
    
    02:22
    Ev'rybody had a good year
    Ev'rybody let their hair down
    Ev'rybody pulled their socks up
    Ev'rybody put their foot down
    Oh yeah


    02:33

  e|0-0-0-- 0-0-0-- 1-1-1-- 2-2-2--|3-3-3-- 3-3-3-- 2-2-2-- 1-1----|
  B/2-2-2--/2-2-2---3-3-3---4-4-4--|5-5-5---5-5-5---4-4-4---3-3----|
  G|0-0-0---0-0-0---0-0-0---0-0-0--|0-0-0---0-0-0---0-0-0---0-0----|
  D|-------------------------------|----------------------------0--|
  A|-------------------------------|-------------------------------|
  E|-------------------------------|-------------------------------|

  e|0-0-0-- 0-0-0-- 0-0-0-- 0-0-0--|0-0-0-- 0-0-0-- 0-0-0-- 0-0-0--|
  B/8-8-8--/8-8-8---7-7-7---6-6-6--|5-5-5---5-5-5---6-6-6---7-7-7--|
  G/9-9-9--/9-9-9---8-8-8---7-7-7--|6-6-6---6-6-6---7-7-7---8-8-8--|
  D|-------------------------------|-------------------------------|
  A|-------------------------------|-------------------------------|
  E|-------------------------------|-------------------------------|





  e|------- 5------ ------- 5------|------- 5------ ------- 5------|
  B|--------2---------3-----3---3--|--------2---------3-----3---3--|
  G|----2-------------2-----2---2--|----2-------------2---------2--|
  D|--------------2H4---2----------|--------------2H4---2-------2--|
  A|0-----------0-------0----------|0-----------0-------0----------|
  E|-------------------------------|-------------------------------|

  e|------- ------- ------- -------|------- ------- ------- -------|
  B|8------------------------------|-------------------------------|
  G10------------------------------|-------------------------------|
  D|-------------------------------|-------------------------------|
  A|-------------------------------|-------------------------------|
  E|-------------------------------|-------------------------------|




    02:45 .... 

  e|------- 12---12 ------- ---1412|---1214 ------- ------- ----12-|
  B|-101214--------------------B-R-|-----/--10---10------10-1214---|
  G|-----B-------------------------|----------11-------11-----B----|
  D|-------------------------------|-------------------------------|
  A|-------------------------------|-------------------------------|
  E|-------------------------------|-------------------------------|
        I've  a feeling         a   feeling deep            Oh  yeah 
            got                                 inside
        Everybody a hard                Everybody a good
                had     year                    had     time


  e|------- ------- ------- -------|------- 12----- ------- -------|
  B|----10----10----------------10-|1214------------141210--10-----|
  G|--------11----------11---------|--B---------------R---------11-|
  D|-------------------------------|-------------------------------|
  A|-------------------------------|-------------------------------|
  E|-------------------------------|-------------------------------|
                            Oh  yeah
        Everybody a wet                 Everybody the 
                had     dream                   saw sunshine



  e|------- 12---12 ---1214 ---1412|------- ------- ------B R------|
  B|---1214--------------B-------R-|----12--10---10---10101210-----|
  G|-----B-------------------------|----------11-----11------------|
  D|-------------------------------|-------------------------------|
  A|-------------------------------|-------------------------------|
  E|-------------------------------|-------------------------------|
        I've  a feeling,        a   feeling I can't hide    Oh  no
            got
        Everybody a good                Everybody their down
                had     year                    let hair


  e|------- ----12- ------- -------|------- ------- ------- -------|
  B|---1214---------1412------10---|10--12\---10----------------10-|
  G|-----B------------B----------11|--------11---11---9---9/11-----|
  D|-------------------------------|-------------------------------|
  A|-------------------------------|-------------------------------|
  E|-------------------------------|-------------------------------|
                                Oh                            yeah
                                  no
        Everybody their                Everybody their down   Oh  yeah
                pull    up                       put foot
                    socks

    03:09

  e|0-0-0-- 0-0-0-- 1-1-1-- 2-2-2--|3-3-3-- 3-3-3-- 2-2-2-- 1-1-1--|
  B|2-2-2---2-2-2---3-3-3---4-4-4--|5-5-5---5-5-5---4-4-4---3-3-3--|
  G|0-0-0---0-0-0---0-0-0---0-0-0--|0-0-0---0-0-0---0-0-0---0-0-0--|
  D|-------------------------------|-------------------------------|
  A|-------------------------------|-------------------------------|
  E|-------------------------------|-------------------------------|

  e|----0-- 0-0-0-- 0------ -0-----|0------ 0------ 0------ 0------|
  B|----8-/-8-8-8--/7-------/6-----/5-------8-------7-------6------|
  G|----9-/-9-9-9--/8-------/7-----/6-------9-------8-------7------|
  D|-------------------------------|-------------------------------|
  A|-------------------------------|-------------------------------|
  E|-------------------------------|-------------------------------|
          yeah                          I've    feeling
                                            got
                                              a


  e|0-0-0-- 0-0-0-- 1-1-1-- 2-2-2--|3-3-3-- 3-3-3-- 2-2-2-- 1-1-1--|
  B|2-2-2---2-2-2---3-3-3---4-4-4--|5-5-5---5-5-5---4-4-4---3-3-3--|
  G|0-0-0---0-0-0---0-0-0---0-0-0--|0-0-0---0-0-0---0-0-0---0-0-0--|
  D|-------------------------------|-------------------------------|
  A|-------------------------------|-------------------------------|
  E|-------------------------------|-------------------------------|

  e|0------ --0-0-- 0-0-0-- 0-0-0--|0-0-0-- 0-0-0-- 0-0-0-- 0-0-0--|
  B|5---------5-5---6-6-6---7-7-7--|8-8-8---8-8-8---7-7-7---6-6-6--|
  G|6---------6-6---7-7-7---8-8-8--|9-9-9---9-9-9---8-8-8---7-7-7--|
  D|-------------------------------|-------------------------------|
  A|-------------------------------|-------------------------------|
  E|-------------------------------|-------------------------------|
                          I've a feeling        oh yeah
                            got



  e|0-0-0-- 0-0-0-- 1-1-1-- 2-2-2--|3-3-3-- 3-3-3-- 2-2-2-- 1-1-1--|
  B|2-2-2---2-2-2---3-3-3---4-4-4--|5-5-5---5-5-5---4-4-4---3-3-3--|
  G|0-0-0---0-0-0---0-0-0---0-0-0--|0-0-0---0-0-0---0-0-0---0-0-0--|
  D|-------------------------------|-------------------------------|
  A|-------------------------------|-------------------------------|
  E|-------------------------------|-------------------------------|

  e|0------ 5-5-5-- 7-7-7-- 8-8-8--|9------ 9-9-9-- 8-8-8-- 7-7-7--|
  B|5-------5-5-5---6-6-6---7-7-7--|8-------8-8-8---7-7-7---6-6-6--|
  G|6-------6-6-6---7-7-7---8-8-8--|9-------9-9-9---8-8-8---7-7-7--|
  D|-------------------------------|-------------------------------|
  A|-------------------------------|-------------------------------|
  E|-------------------------------|-------------------------------|
                          I've a feeling      yeah  yeah    yeah
                            got                                 yeah



  e|0------ ------- ------- -------|------- ------- ------- -------|
  B|2------------------------------|-------------------------------|
  G|0------------------------------|-------------------------------|
  D|-------------------------------|-------------------------------|
  A|-------------------------------|-------------------------------|
  E|-------------------------------|-------------------------------|

  e/5------ ------- ------- -------|------- ------- ------- -------|
  B/5------------------------------|-------------------------------|
  G/6------------------------------|-------------------------------|
  D|-------------------------------|-------------------------------|
  A|-------------------------------|-------------------------------|
  E|-------------------------------|-------------------------------|






        B  Bend
        R  Release
        /  slide up
        \  slide down
        H  hammer-on
        P  pull-off
        ~  vibrato
        +  harmonic
        x  Mute note
        . - play note like a dot in standard notation
        ^ - ties two notes together
        (.  Pause


Tap to rate this tab
 
# A B C D E F G H I J K L M N O P Q R S T U V W X Y Z