Beatles - Thank You Girl tab

    -----------------------------------------------------------------

    THE BEATLES - THANK YOU GIRL (Lennon & McCartney) Released as the 
                  B side of FROM ME TO YOU single on April 11th 1963. 

    -----------------------------------------------------------------

    Tabbed by:PJVillanueva





    Oh, oh,

    You've been good to me,
    You made me glad
    When I was blue

    And eternally I'll always be
    In love with you

    And all I gotta do
    Is thank you girl, thank you girl

    I could tell the world
    A thing or two about our love

    I know little girl
    Only a fool would doubt our love

    And all I gotta do
    Is thank you girl, thank you girl

    Thank you girl for loving me
    The way that you do (way that you do)
    That's the kind of love
    That is too good to be true

    And all I gotta do
    Is thank you girl, thank you girl

    Oh, oh,
    You've been good to me,
    You made me glad
    When I was blue

    And eternally I'll always be
    In love with you,

    And all I gotta do
    Is thank you girl, thank you girl
    Oh, oh. 




    A5      A6  A6                  G5      G6      G5                       
  e|------- ------- ------- -------|------- ------- ------- -------|
  B|-------------------------------|-------------------------------|
  G|-------------------------------|-------------------------------|
  D|-------------------------------|-------------------------------|
  A|7---7---9---7---7---7----------|5---5---7---7---5---5----------|
  E|5---5---5---5---5---5----------|3---3---3---3---3---3----------|


   

  e|------- ------- ------- -------|------- ------- ------- -------|
  B|-------------------------------|-------------------------------|
  G|-------------------------------|-------------------------------|
  D|-------------------------------|-------------------------------|
  A|7---7---9---7---7---7---9---9--|5---5---7---7---5---5---7------|
  E|5---5---5---5---5---5---5---5--|3---3---3---3---3---3---5------|
    Oh                              oh


    00:07
    D               G               
  e|2---2-- 2---0-- 3---3-- 3---0--|2---2-- 2---0-- 3---3-- 3---0--|
  B|3---3---3---0---3---3---3---0--|3---3---3---0---3---3---3---0--|
  G|2---2---2---0---0---0---0---0--|2---2---2---0---0---0---0---0--|
  D|0---0---0-------0---0---0------|0---0---0-------0---0---0------|
  A|----------------2---2---2------|----------------2---2---2------|
  E|----------------3---3---3------|----------------3---3---3------|
    You've              been    to  me                  you made
                            good                                me

    D               A
  e|2---2-- 2---0-- 0---0-- 0---0--|2------ 2---0-- 3---3-- 3---0--|
  B|3---3---3---0---2---2---2---0--|3-------3---0---3---3---3---0--|
  G|2---2---2---0---2---2---2---0--|2-------2---0---0---0---0---0--|
  D|0---0---0-------2---2---2------|0-------0-------0---0---0------|
  A|----------------0---0---0------|----------------2---2---2------|
  E|-------------------------------|----------------3---3---3------|
    glad                when    was blue
                            I


  e|2---2-- 2---0-- 3---3-- 3---0--|2---2-- 2---0-- 3---3-- 3---0--|
  B|3---3---3---0---3---3---3---0--|3---3---3---0---3---3---3---0--|
  G|2---2---2---0---0---0---0---0--|2---2---2---0---0---0---0---0--|
  D|0---0---0-------0---0---0------|0---0---0-------0---0---0------|
  A|----------------2---2---2------|----------------2---2---2------|
  E|----------------3---3---3------|----------------3---3---3------|
    and                 eternally                       I'll
                                                            always


  e|2------ 2---0-- 0---0-- 0---0--|2---2-- 2---0-- 3---3-- -------|
  B|3-------3---0---2---2---2---0--|3---3---3---0---3---3----------|
  G|2-------2---0---2---2---2---0--|2---2---2---0---0---0----------|
  D|0-------0-------2---2---2------|0---0---0-------0---0----------|
  A|----------------0---0---0------|----------------2---2----------|
  E|-------------------------------|----------------3---3----------|
    be                  in  love    you                         And   
                                with

    G                               A
  e|3---3-- 3---3-- 3---3-- 3------|5------ 5---5-- 5---5-- 5------|
  B|3---3---3---3---3---3---3------|5-------5---5---5---5---5------|
  G|4---4---4---4---4---4---4------|6-------6---6---6---6---6------|
  D|5---5---5---5---5---5---5------|7-------7---7---7---7---7------|
  A|5---5---5---5---5---5---5------|7-------7---7---7---7---7------|
  E|3---3---3---3---3---3---3------|5-------5---5---5---5---5------|
    all     I've    got     to      do                      is


    G                               A
  e|3---3-- 3---3-- 3---3-- 3------|0---0-- 0------ 0------ 0------|
  B|3---3---3---3---3---3---3------|2---2---2-------2-------2------|
  G|0---0---0---0---0---0---0------|2---2---2-------2-------2------|
  D|0---0---0---0---0---0---0------|2---2---2-------2-------2------|
  A|2---2---2---2---2---2---2------|0---0---0-------0-------0------|
  E|3---3---3---3---3---3---3------|-------------------------------|
    thank       girl                thank       girl
        you                             you


    00:28

  e|2------ 2---0-- 3---3-- 3---0--|2---2-- 2---0-- 3---3-- 3------|
  B|3-------3---0---3---3---3---0--|3---3---3---0---3---3---3------|
  G|2-------2---0---0---0---0---0--|2---2---2---0---0---0---0------|
  D|0-------0-------0---0---0------|0---0---0-------0---0---0------|
  A|----------------2---2---2------|----------------2---2---2------|
  E|----------------3---3---3------|----------------3---3---3------|
    I                   could   the world               a   thing
                            tell                                or


  e|2---2-- 2---0-- 0---0-- 0---0--|2---2-- 2---0-- 3---3-- 3---0--|
  B|3---3---3---0---2---2---2---0--|3---3---3---0---3---3---3---0--|
  G|2---2---2---0---2---2---2---0--|2---2---2---0---0---0---0---0--|
  D|0---0---0-------2---2---2------|0---0---0-------0---0---0------|
  A|----------------0---0---0------|----------------2---2---2------|
  E|-------------------------------|----------------3---3---3------|
    two                 about   our love
                          


  e|2---2-- 2---0-- 3---3-- 3---0--|2------ 2---0-- ----3-- 3---0--|
  B|3---3---3---0---3---3---3---0--|3-------3---0-------3---3---0--|
  G|2---2---2---0---0---0---0---0--|2-------2---0-------0---0---0--|
  D|0---0---0-------0---0---0------|0-------0-----------0---0------|
  A|----------------2---2---2------|--------------------2---2------|
  E|----------------3---3---3------|--------------------3---3------|
    I                   know    girl                    only    a
                            little                                


  e|2---2-- 2---0-- 0---0-- 0------|2------ 2---2-- 2---2-- ----2--|
  B|3---3---3---0---2---2---2------|3-------3---3---3---3-------3--|
  G|2---2---2---0---2---2---2------|2-------2---2---2---2-------2--|
  D|0---0---0-------2---2---2------|0-------0---0---0---0-------0--|
  A|----------------0---0---0------|-------------------------------|
  E|-------------------------------|-------------------------------|
    fool                could   our love                        And   
                            doubt    


  e|3---3-- 3---3-- 3------ 3------|5---5-- 5---5-- 5---5-- 5------|
  B|3---3---3---3---3-------3------|5---5---5---5---5---5---5------|
  G|4---4---4---4---4-------4------|6---6---6---6---6---6---6------|
  D|5---5---5---5---5-------5------|7---7---7---7---7---7---7------|
  A|5---5---5---5---5-------5------|7---7---7---7---7---7---7------|
  E|3---3---3---3---3-------3------|5---5---5---5---5---5---5------|
    all     I've    got     to      do                      is



  e|3---3-- 3---3-- 3------ 3------|0------ 0---0-- 0---0-- 0------|
  B|3---3---3---3---3-------3------|2-------2---2---2---2---2------|
  G|0---0---0---0---0-------0------|2-------2---2---2---2---2------|
  D|0---0---0---0---0-------0------|2-------2---2---2---2---2------|
  A|2---2---2---2---2-------2------|0-------0---0---0---0---0------|
  E|3---3---3---3---3-------3------|-------------------------------|
    thank       girl                thank       girl
        you                             you


    00:48
    Bm                              D
  e|2------ 2---2-- 2---2-- 2---0--|2------ 2---2-- 2------ 2------|
  B|3-------3---3---3---3---3---0--|3-------3---3---3-------3---0--|
  G|4-------4---4---4---4---4---0--|2-------2---2---2-------2---0--|
  D|4-------4---4---4---4---4------|0-------0---0---0-------0---0--|
  A|2-------2---2---2---2---2------|-------------------------------|
  E|-------------------------------|-------------------------------|
    Thank   you     girl    for     treating        me      the


    A
  e|0------ 0------ 0------ 0---0--|0------ 0------ 0---0-- 0------|
  B|2-------2-------2-------2---2--|2-------2-------2---2---2---0--|
  G|2-------2-------2-------2---2--|2-------2-------2---2---2---0--|
  D|2-------2-------2-------2---2--|2-------2-------2---2---2---0--|
  A|0-------0-------0-------0---0--|0-------0-------0---0---0------|
  E|-------------------------------|-------------------------------|
    way     that    do
                you                 Way     that    do
                                                you
                                              
    Em                              A
  e|0------ 0------ 0---0-- 0------|0------ 0---0-- 0---0-- 0------|
  B|0-------0-------0---0---0------|2-------2---2---2---2---2------|
  G|0-------0-------0---0---0------|2-------2---2---2---2---2------|
  D|2-------2-------2---2---2------|2-------2---2---2---2---2------|
  A|2-------2-------2---2---2------|0-------0---0---0---0---0------|
  E|0-------0-------0---0---0------|-------------------------------|
    That's  the     kind    of      love    That    is      too 


    D
  e|2------ 2------ 2------ 2---2--|2------ 2---2-- 2---2-- 2------|
  B|3-------3-------3-------3---3--|3-------3---3---3---3---3------|
  G|2-------2-------2-------2---2--|2-------2---2---2---2---2------|
  D|0-------0-------0-------0---0--|0-------0---0---0---0---0------|
  A|-------------------------------|-------------------------------|
  E|-------------------------------|-------------------------------|
    good    to  be  true                                        And



  e|3------ 3------ 3---3-- 3------|5------ 5---5-- 5------ 5------|
  B|3-------3-------3---3---3------|5-------5---5---5-------5------|
  G|4-------4-------4---4---4------|6-------6---6---6-------6------|
  D|5-------5-------5---5---5------|7-------7---7---7-------7------|
  A|5-------5-------5---5---5------|7-------7---7---7-------7------|
  E|3-------3-------3---3---3------|5-------5---5---5-------5------|
    all     I've    got     to      do                      is



  e|3---3-- 3------ 3---3-- 3---3--|0---0-- 0------ 0---0-- 0---0--|
  B|3---3---3-------3---3---3---3--|2---2---2-------2---2---2---2--|
  G|0---0---0-------0---0---0---0--|2---2---2-------2---2---2---2--|
  D|0---0---0-------0---0---0---0--|2---2---2-------2---2---2---2--|
  A|2---2---2-------2---2---2---2--|0---0---0-------0---0---0---0--|
  E|3---3---3-------3---3---3---3--|-------------------------------|
    thank       girl                thank       girl
        you                             you



  e|------- ------- ------- -------|------- ------- ------- -------|
  B|-------------------------------|-------------------------------|
  G|-------------------------------|-------------------------------|
  D|-------------------------------|-------------------------------|
  A|7---7---9---9---7---7---9------|5---5---7---7---5---5---7------|
  E|5---5---5---5---5---5---5------|3---3---3---3---3---3---3------|




  e|------- ------- ------- -------|------- ------- ------- -------|
  B|-------------------------------|-------------------------------|
  G|-------------------------------|-------------------------------|
  D|-------------------------------|-------------------------------|
  A|7-------9---9---7---7---9------|5---5---7---7---5---5---7------|
  E|5-------5---5---5---5---5------|3---3---3---3---3---3---5------|
    Oh                              oh



    01:17
    You've been good to me,
    You made me gla
    When I was blue

    And eternally I'll always be
    In love with you

    01:31
    And all I gotta do
    Is thank you girl, thank you girl



  e|------- ------- ------- -------|------- ------- ------- -------|
  B|-------------------------------|-------------------------------|
  G|-------------------------------|-------------------------------|
  D|-------------------------------|-------------------------------|
  A|7---7---9---7---7---7---9---7--|5---5---7---7---5---5---7---7--|
  E|5---5---5---5---5---5---5---5--|3---3---3---3---3---3---3---3--|



    01:41

  e|------- ------- ------- -------|------- ------- ------- -------|
  B|-------------------------------|-------------------------------|
  G|-------------------------------|-------------------------------|
  D|-------------------------------|-------------------------------|
  A|7---7---9---7---7---7---9---7--|5---5---7---7---5---5---7------|
  E|5---5---5---5---5---5---5---5--|3---3---3---3---3---3---3------|
    Oh                              oh


  e|------- 2------ ----3-- 3------|2------ 2------ 3---3-- 3------|
  B|--------3-----------3---3------|3-------3-------3---3---3------|
  G|--------2-----------0---0------|2-------2-------0---0---0------|
  D|--------0-----------0---0------|0-------0-------0---0---0------|
  A|--------------------2---2------|----------------2---2---2------|
  E|--------------------3---3------|----------------3---3---3------|
    oh


  e|------- ------- ------- -------|------- ------- ------- -------|
  B|-------------------------------|-------------------------------|
  G|-------------------------------|-------------------------------|
  D|-------------------------------|-------------------------------|
  A|7---7---9---7---7---7---9---7--|5---5---7---7---5---5---7------|
  E|5---5---5---5---5---5---5---5--|3---3---3---3---3---3---3------|
    Oh                              oh


  e|------- 2------ ----3-- 3------|2---2-- 2------ 3---3-- 3------|
  B|--------3-----------3---3------|3---3---3-------3---3---3------|
  G|--------2-----------0---0------|2---2---2-------0---0---0------|
  D|--------0-----------0---0------|0---0---0-------0---0---0------|
  A|--------------------2---2------|----------------2---2---2------|
  E|--------------------3---3------|----------------3---3---3------|
    oh


  e|------- ------- ------- -------|------- ------- ------- -------|
  B|-------------------------------|-------------------------------|
  G|-------------------------------|-------------------------------|
  D|-------------------------------|-------------------------------|
  A|7---7---9---7---7---7---9---7--|5---5---7---7---5---5---7------|
  E|5---5---5---5---5---5---5---5--|3---3---3---3---3---3---3------|
    Oh                              oh


  e(2)----- ------- ------- -------|2------ ------- ------- -------|
  B|3---3---3---3---3---3---3---3--|3------------------------------|
  G|1---1---4---4---2---2---4---4--|2------------------------------|
  D|0---0---0---0---0---0---0---0--|0------------------------------|
  A|-------------------------------|-------------------------------|
  E|-------------------------------|-------------------------------|






        B  Bend
        R  Release
        /  Slide up
        \  Slide down
        H  Hammer-on
        P  Pull-off
        ~  Vibrato
        +  Harmonic
        x  Mute note
        .  Play note like a dot in standard notation
        ^  Ties two notes together
        (. Pause


                                    
Tap to rate this tab
 
# A B C D E F G H I J K L M N O P Q R S T U V W X Y Z