Song name
# A B C D E F G H I J K L M N O P Q R S T U V W X Y Z

Beatles - Yer Blues tab

The two tabs i saw on here were just not sounding right so here's just the 
begining rift to the song. Enjoy!


Verse:
    E   Am
e||------------------------||
B||-----1/333--------------||
G||-1---2/444--0b2---------||
D||-2---2------0b2---------||
A||-2----------------------||
E||------------------------||

     E  E  Am          A  Am      G
e|------------------------------------|
B|---------1/333-------2--1/333-------|
G|---1--1--2/444--0b2--2--2/444-------|
D|---2--2--2------0b2--2--2-----------|
A|---2--2-------------------------2---|
E|-0------------------------------3---|
Tap to rate this tab
 
# A B C D E F G H I J K L M N O P Q R S T U V W X Y Z