Song name
# A B C D E F G H I J K L M N O P Q R S T U V W X Y Z

Beatles - While My Guitar Gently Weeps chords

Highlighted       Show chord diagrams
(Intro)

E|--1--1-1--1-----1-1------1-1------1--1-1-|---0h1p0--0--0-0--0-1--1-1-0-0h1|
A|--3--3-3--3-----3-3------3-3------3--3-3-|--------3-3--3-3--3-3--3-3-3-3--|
D|--2--2-2--2-----2-2------0-0------3--3-3-|-2--------0--0-0--0-2--2-2-2-2--|
G|--0--0-0--0--0--0-0------0-0------3--3-3-|0---------0--0-0--0-0--0-0-0----|
B|--0--0-0--0---3-3-3-3-2--2-2-2-1--1--1-1-|----------3--3-3--3-0--0-0-0----|
e|-----------------------------------------|--------------------------------|

   Dm          Dm/C        Dm/B                    Bb
I look at you all see the love there that's sleeping
 Dm          C      G          A
While my guitar gently weeps
   Dm          Dm/C        Dm/B              Bb
I look at the floor and I see it need sweeping
 Dm         C       F             A
Still my guitar gently weeps


D               F#m   Bm    F#m      
    I don't know why nobody told you
Em         Em7        A             
  how to unfold you love
D               F#m    Bm       F#m   
   I don't know how someone controlled you
Em              Em7    A     A7
they bought and sold you

(rest of the guitar parts are the same)

I look at the world and I notice it's turning
While my guitar gently weeps
With every mistake we must surely be learning
Still my guitar gently weeps

I don't know how you were diverted
you were perverted too
I don't know how you were inverted
no one alerted you

I look from the wings of the plane you are staging
While my guitar gently weeps
As im sitting here doing nothing but aging
Still my guitar gently weeps

(Outro)                                            
                                                     (Repeat 4x)
E|--1--1-1--1------1-1------1-1------1--1-1--|-1--0-------0-------------|
A|--3--3-3--3------3-3------3-3------3--3-3--|-3--3--3-3--3--0-0--------|
D|--2--2-2--2------2-2------0-0------3--3-3--|-2--2--2-2--0--0-0--------|
G|--0--0-0--0--0---0-0------0-0------3--3-3--|-0-----0-0--0--0-0--------|
B|--0--0-0--0---3--3-3-3-2--2-2-2-1--1--1-1--|-0----------3--3-3--------|
e|-------------------------------------------|--------------------------|
Tap to rate this tab
 
# A B C D E F G H I J K L M N O P Q R S T U V W X Y Z