Beatles - Revolution tab

e--3-4-4-4-4-4-4-4-4-4-4---|
B--4-5-5-5-5-5-5-5-5-5-5---|
G--3-4-4-4-4-4-4-4-4-4-4---|
D--------------------------|
A--------------------------|
E--------------------------| X3

VERSE:    (you figure out when to change. it's really easy) Iīm pretty sure this 
is the correct version.

e------------------------------------------------|
B------------------------------------------------|
G------------------2-2-4-2-2-4-2-----------------|
D--2-2-4-2-2-2-4-2-0-0-0-0-0-0-0-2-2-4-2-2-2-4-2-|
A--0-0-0-0-0-0-0-0---------------0-0-0-0-0-0-0-0-|
E------------------------------------------------|

On the verse one you do that. On the second one you do this from the E and D string to this:

e-----------------|
B-----------------|
G-----------------|
D-----------------|
A-2-2-4-2-2-2-4-2-|
E-0-0-0-0-0-0-0-0-|


G                                    F  G                             G
 But when you talk about destruction,    Donīt you know that you can count

A    F
me out?  Donīt you know itīs gonna be alright.....   I alright you go to the same up and 
the other parts of like this one, you do the same cords.


                     GOOD LUCK.
Tap to rate this tab
 
# A B C D E F G H I J K L M N O P Q R S T U V W X Y Z