Song name
# A B C D E F G H I J K L M N O P Q R S T U V W X Y Z

Beatles - Her Majesty tab

------------------------------------------------------------------
Artist: THE BEATLES  Song: HER MAJESTY Composers :( Lennon/McCartney)
Album: ABBEY ROAD

------------------------------------------------------------------
 Tabbed by: Berton Thomas Orr
**HI LITER IS FOR THE WORD CORRESPONDING TO THE CHORD IF SINGING**



 INTRO CHORD
 (Strum slow, low to high ONCE) Let it ring.)


e|---2----------|
B|---3----------|
G|---2----------|
D|---0----------|
A|---0----------|
E|---2----------|

(Strumming during song is a Down/Up pattern)D-DU


          D                     B7       A7     D
e|--------2-----------0----0-------------------2------------------|
B|--------3---------- 3----3------------2------3------------------|
G|--------2-----------0----0----2-------0----- 2------------------|
D|0-------------0-----0----0----1--------2------------------------|
A|----------------0-2-2--00----2---------------------------------|
E|----------------------------------------------------------------|
  Her maj. A pretty nice girl but she hasnt got a lot to say



                    D                            A7   x2
e|------------------2----------0-----0---- 0-X4-0---------------------------|
B|------------------3-----------3-----3-----3----2----2--/-3-2---------------|
G|------------------2-----------0-----0-----1----0----0----0-0---------------|
D|---------------0--------------0-----0-----2----2----2----2-2---------------|
A|--0---2---4-------------0---2-2--0--0-----0----0---------------------------|
E|------------------------------0-----0-----0----0---------------------------|

   Her Maj. A pretty nice girl but she changes from day to day...



         Bm DDUD  X2               DDUD   (slow)DDUD
e|-------2-------------------------0------------3-----0----------------|
B|-------3-------------------------1------------0-----0----------------|
G|-------4-------------------------2------------0-----0----------------|
D|-------4-------------------------0------------0-----0----------------|
A|-------2-------------------------0------------2-----2----------------|
E|-------0--------------------------------------3-----3----------------|

I want to tell her that I love her a Lot but I gotta get a belly full of

wine.

                  D                 B7         E      A    D
E|-3-/-7----------2- ----------------------- --0----- 0----2------------|
B|-2-/-6----------3----------------------------0------2----3------------|
G|-3-/-7----------2-----------------2----------1------0----2------------|
D|-2---6----------0-----------------1----------0------2----0------------|
A|----------------0-----------------2----------2------0-----------------|
E|----------------------------------0----------0------0-----------------|

  Her Majesty's a pretty nice    girl    someday Im gonna make her mine,


   B7            E           A7            D
e|--0------------0-----------0-------------2------------------------|
B|--0------------0-----------2-------------3------------------------|
G|--2------------1-----------0-----0-------2------------------------|
D|--1------------2-----------2-------------0------------------------|
A|--2------------2--0--------0--------------------------------------|
E|---------------0--------------------------------------------------|

    Oh -yeah, someday Im gonna make her mine.
Tap to rate this tab
 
# A B C D E F G H I J K L M N O P Q R S T U V W X Y Z