Song name
# A B C D E F G H I J K L M N O P Q R S T U V W X Y Z

Beatles - Ive Got A Feeling Acoustic tab

--------------------------------------------------------------------------
			(acoustic)I've got a feeling  -  Beatles
-------------------------------------------------------------------------------
Tabbed by:jgalvan
Email:jgalvan2200@yahoo.com

Tuning:standard

e|-----------0-0--x---5-------x---------------x------------------------------|
B|----5------0-0--x---5-------x---------------x------------------------------|
G|----5-h-6--6-6--x---5-------x--7---7-7---7--x-5/7-5------------------------|
D|----5-h-7-------x---5-------x--6---6-6---6--x-------7p5-7-5---5------------|
A|----5-h-7-------x------5-7--x--7---7-7---7--x---------------7---7-5\3p0----|
E|----5-----------x------0-0--x--0---0-0---0--x--------------------------3/5-|

Played very funky...use guitar as percussion. Can play whole song through using 
variations of this overall riff. Please let me know what you think. Email me above address.
************************************

| /   slide up
| \   slide down
| h   hammer-on
| p   pull-off
| ~   vibrato
| +   harmonic
| x   Mute note
| b   Bend
| pb  Pre-bend
| br  Bend release
| pbr Pre-bend release
| brb Bend release bend

************************************
Tap to rate this tab
 
# A B C D E F G H I J K L M N O P Q R S T U V W X Y Z