Song name
# A B C D E F G H I J K L M N O P Q R S T U V W X Y Z

Beatles - While My Guitar Gently Weeps Acoustic tab

                   While My Guitar Gently Weeps Acoustic                       


                                                                     The Beatles
George Harrison (Capo 5)



     v                               v                       v             
     Q    E  Q    E  Q       Q    E  Q    E  Q       Q    E  Q    E  Q     
E||--1-------1-------L----|--L-------1-------L----|--L-------1------------|
B||--3----3-------3--L----|--L-------3-------L----|--L-------3-------L----|
G||--2--------------------|-------2-------2-------|-------2-------2--L----|
D||--0---------------0----|-----------------------|-----------------------|
A||-----------------------|--3---------------3----|--2---------------2----|
E||-----------------------|-----------------------|-----------------------|


          v               v                           v                         
  Q    E  Q    E  Q       Q    Q    S  S  E  E  E     Q    E  Q     E    Q      
----------1------------|--1---------0h-1p-0--------|---------------------------|
--L-------3------------|--3------------------3--L--|--3-------1-----L----L-----|
--L----2-------2--L----|--2----2-------------------|--0----0--------L----L-----|
-----------------------|--0------------------------|--2-----------------(0)----|
--1---------------1----|---------------------------|--3------------(0)---------|
-----------------------|---------------------------|---------------------------|


  v                       v                   v                     
  Q    E  Q    E  Q       W                   Q    E  Q    E  Q     
--1-------1------------|--1----------------|--1-------1-------L----|
--3----3-------3--L----|--3----------------|--3----3-------3--L----|
--2--------------------|--2----------------|--2--------------------|
--0--------------------|--0----------------|--0---------------0----|
------------------0----|-------------------|-----------------------|
-----------------------|-------------------|-----------------------|


          v                       v                       v             
  Q    E  Q    E  Q       Q    E  Q    E  Q       Q    E  Q    E  Q     
--L-------1-------L----|--L-------1------------|----------1------------|
--L-------3-------L----|--L-------3-------L----|--L-------3------------|
-------2-------2-------|-------2-------2--L----|--L----2-------2--L----|
-----------------------|-----------------------|-----------------------|
--3---------------3----|--2---------------2----|--1---------------1----|
-----------------------|-----------------------|-----------------------|


  v                   v                       v                     
  W                   Q    E  Q    E  Q       Q    E  Q    E  Q     
--1----------------|--0--------------------|--3-------3------------|
--3----------------|--1--------------------|--3------------3-------|
--2----------------|--0-------0------------|--0----0----------0----|
--0----------------|--2------------2-------|--0--------------------|
-------------------|--3----3----------3----|--2--------------------|
-------------------|-----------------------|-----------------------|


  v                       v                               v             
  Q    E  Q    E  Q       Q    E  Q    E  Q       Q    E  Q    E  Q     
--0-------0------------|--1-------1-------L----|--L-------1-------L----|
--2------------2-------|--3----3-------3--L----|--L-------3-------L----|
--2----2----------2----|--2--------------------|-------2-------2-------|
--2--------------------|--0---------------0----|-----------------------|
-----------------------|-----------------------|--3---------------3----|
-----------------------|-----------------------|-----------------------|


          v                       v               v                 
  Q    E  Q    E  Q       Q    E  Q    E  Q       W                 
--L-------1------------|----------1------------|--1----------------|
--L-------3-------L----|--L-------3------------|--3----------------|
-------2-------2--L----|--L----2-------2--L----|--2----------------|
-----------------------|-----------------------|--0----------------|
--2---------------2----|--1---------------1----|-------------------|
-----------------------|-----------------------|-------------------|


  v    v  ^    ^  v  ^     v    v  ^    ^  v  ^     v    v  ^    ^  v  ^   
  Q    E  Q    E  E  E     Q    E  Q    E  E  E     Q    E  Q    E  E  E   
--0---------------------|--1----1--1----1--1--1--|--0----0--0----0--0--0--|
--1----1--1----1--1--1--|--1----1--1----1--1--1--|--2----2--2----2--2--2--|
--0----0--0----0--0--0--|--2----2--2----2--2--2--|--2----2--2----2--2--2--|
--2----2--2----2--2--2--|--3----3--3----3--3--3--|--2----2--2----2--2--2--|
--3----3--3----3--3--3--|--3----3--3----3--3--3--|--0----0--0----0--0--0--|
------------------------|------------------------|------------------------|


  v    v  ^    ^  v  ^     v    v  ^    ^  v  ^     v    v  ^    ^  v  ^   
  Q    E  Q    E  E  E     Q    E  Q    E  E  E     Q    E  Q    E  E  E   
--2----2--2----2--2--2--|--2----2--2----2--2--2--|--2----2--2----2--2--2--|
--3----3--3----3--3--3--|--2----2--2----2--2--2--|--3----3--3----3--3--3--|
--2----2--2----2--2--2--|--2----2--2----2--2--2--|--4----4--4----4--4--4--|
--0----0--0----0--0--0--|--4----4--4----4--4--4--|--4----4--4----4--4--4--|
--0----0--0----0--0--0--|--4----4--4----4--4--4--|--2----2--2----2--2--2--|
------------------------|------------------------|------------------------|


  v    v  ^    ^  v  ^     v    v  ^    ^  v  ^     v    v  ^    ^  v  ^   
  Q    E  Q    E  E  E     Q    E  Q    E  E  E     Q    E  Q    E  E  E   
--2----2--2----2--2--2--|--0----0--0----0--0--0--|--0----0--0----0--0--0--|
--2----2--2----2--2--2--|--0----0--0----0--0--0--|--3----3--3----3--3--3--|
--2----2--2----2--2--2--|--0----0--0----0--0--0--|--0----0--0----0--0--0--|
--4----4--4----4--4--4--|--2----2--2----2--2--2--|--2----2--2----2--2--2--|
--4----4--4----4--4--4--|--2----2--2----2--2--2--|--2----2--2----2--2--2--|
------------------------|------------------------|------------------------|


  v    v  ^    ^  v  ^     v    v  ^    ^  v  ^     v    v  ^    ^  v  ^   
  Q    E  Q    E  E  E     Q    E  Q    E  E  E     Q    E  Q    E  E  E   
--0----0--0----0--0--0--|--0----0--0----0--0--0--|--2----2--2----2--2--2--|
--2----2--2----2--2--2--|--2----2--2----2--2--2--|--3----3--3----3--3--3--|
--2----2--2----2--2--2--|--2----2--2----2--2--2--|--2----2--2----2--2--2--|
--2----2--2----2--2--2--|--2----2--2----2--2--2--|--0----0--0----0--0--0--|
--0----0--0----0--0--0--|--0----0--0----0--0--0--|--0----0--0----0--0--0--|
------------------------|------------------------|------------------------|


  v    v  ^    ^  v  ^     v    v  ^    ^  v  ^     v    v  ^    ^  v  ^   
  Q    E  Q    E  E  E     Q    E  Q    E  E  E     Q    E  Q    E  E  E   
--2----2--2----2--2--2--|--2----2--2----2--2--2--|--2----2--2----2--2--2--|
--2----2--2----2--2--2--|--3----3--3----3--3--3--|--2----2--2----2--2--2--|
--2----2--2----2--2--2--|--4----4--4----4--4--4--|--2----2--2----2--2--2--|
--4----4--4----4--4--4--|--4----4--4----4--4--4--|--4----4--4----4--4--4--|
--4----4--4----4--4--4--|--2----2--2----2--2--2--|--4----4--4----4--4--4--|
------------------------|------------------------|------------------------|


  v    v  ^    ^  v  ^     v    v  ^    ^  v  ^     v    v  ^    ^  v  ^   
  Q    E  Q    E  E  E     Q    E  Q    E  E  E     Q    E  Q    E  E  E   
--0----0--0----0--0--0--|--0----0--0----0--0--0--|--0----0--0----0--0--0--|
--0----0--0----0--0--0--|--3----3--3----3--3--3--|--2----2--2----2--2--2--|
--0----0--0----0--0--0--|--0----0--0----0--0--0--|--2----2--2----2--2--2--|
--2----2--2----2--2--2--|--2----2--2----2--2--2--|--2----2--2----2--2--2--|
--2----2--2----2--2--2--|--2----2--2----2--2--2--|--0----0--0----0--0--0--|
------------------------|------------------------|------------------------|


  v    v  ^    ^  v       v                   v                     
  Q    E  Q    E  Q       W                   Q    E  Q    E  Q     
--0----0--0----0-------|--0----------------|--1-------1-------L----|
--2----2--2----2-------|--2----------------|--3----3-------3--L----|
--2----2--2----2-------|--2----------------|--2--------------------|
--2----2--2----2-------|--2----------------|--0---------------0----|
--0----0--0----0--0----|--0----------------|-----------------------|
-----------------------|-------------------|-----------------------|


          v                       v                       v             
  Q    E  Q    E  Q       Q    E  Q    E  Q       Q    E  Q    E  Q     
--L-------1-------L----|--L-------1------------|----------1------------|
--L-------3-------L----|--L-------3-------L----|--L-------3------------|
-------2-------2-------|-------2-------2--L----|--L----2-------2--L----|
-----------------------|-----------------------|-----------------------|
--3---------------3----|--2---------------2----|--1---------------1----|
-----------------------|-----------------------|-----------------------|


  v                   v                       v                     
  W                   Q    E  Q    E  Q       Q    E  Q    E  Q     
--1----------------|--0--------------------|--3-------3------------|
--3----------------|--1--------------------|--3------------3-------|
--2----------------|--0-------0------------|--0----0----------0----|
--0----------------|--2------------2-------|--0--------------------|
-------------------|--3----3----------3----|--2--------------------|
-------------------|-----------------------|-----------------------|


  v                       v                               v             
  Q    E  Q    E  Q       Q    E  Q    E  Q       Q    E  Q    E  Q     
--0-------0------------|--1-------1-------L----|--L-------1-------L----|
--2------------2-------|--3----3-------3--L----|--L-------3-------L----|
--2----2----------2----|--2--------------------|-------2-------2-------|
--2--------------------|--0---------------0----|-----------------------|
-----------------------|-----------------------|--3---------------3----|
-----------------------|-----------------------|-----------------------|


          v                       v               v                 
  Q    E  Q    E  Q       Q    E  Q    E  Q       W                 
--L-------1------------|----------1------------|--1----------------|
--L-------3-------L----|--L-------3------------|--3----------------|
-------2-------2--L----|--L----2-------2--L----|--2----------------|
-----------------------|-----------------------|--0----------------|
--2---------------2----|--1---------------1----|-------------------|
-----------------------|-----------------------|-------------------|


  v    v  ^    ^  v  ^     v    v  ^    ^  v  ^     v    v  ^    ^  v  ^   
  Q    E  Q    E  E  E     Q    E  Q    E  E  E     Q    E  Q    E  E  E   
--0---------------------|--1----1--1----1--1--1--|--0----0--0----0--0--0--|
--1----1--1----1--1--1--|--1----1--1----1--1--1--|--2----2--2----2--2--2--|
--0----0--0----0--0--0--|--2----2--2----2--2--2--|--2----2--2----2--2--2--|
--2----2--2----2--2--2--|--3----3--3----3--3--3--|--2----2--2----2--2--2--|
--3----3--3----3--3--3--|--3----3--3----3--3--3--|--0----0--0----0--0--0--|
------------------------|------------------------|------------------------|


  v    v  ^    ^  v  ^     v    v  ^    ^  v  ^     v    v  ^    ^  v  ^   
  Q    E  Q    E  E  E     Q    E  Q    E  E  E     Q    E  Q    E  E  E   
--2----2--2----2--2--2--|--2----2--2----2--2--2--|--2----2--2----2--2--2--|
--3----3--3----3--3--3--|--2----2--2----2--2--2--|--3----3--3----3--3--3--|
--2----2--2----2--2--2--|--2----2--2----2--2--2--|--4----4--4----4--4--4--|
--0----0--0----0--0--0--|--4----4--4----4--4--4--|--4----4--4----4--4--4--|
--0----0--0----0--0--0--|--4----4--4----4--4--4--|--2----2--2----2--2--2--|
------------------------|------------------------|------------------------|


  v    v  ^    ^  v  ^     v    v  ^    ^  v  ^     v    v  ^    ^  v  ^   
  Q    E  Q    E  E  E     Q    E  Q    E  E  E     Q    E  Q    E  E  E   
--2----2--2----2--2--2--|--0----0--0----0--0--0--|--0----0--0----0--0--0--|
--2----2--2----2--2--2--|--0----0--0----0--0--0--|--3----3--3----3--3--3--|
--2----2--2----2--2--2--|--0----0--0----0--0--0--|--0----0--0----0--0--0--|
--4----4--4----4--4--4--|--2----2--2----2--2--2--|--2----2--2----2--2--2--|
--4----4--4----4--4--4--|--2----2--2----2--2--2--|--2----2--2----2--2--2--|
------------------------|------------------------|------------------------|


  v    v  ^    ^  v  ^     v    v  ^    ^  v  ^     v    v  ^    ^  v  ^   
  Q    E  Q    E  E  E     Q    E  Q    E  E  E     Q    E  Q    E  E  E   
--0----0--0----0--0--0--|--0----0--0----0--0--0--|--2----2--2----2--2--2--|
--2----2--2----2--2--2--|--2----2--2----2--2--2--|--3----3--3----3--3--3--|
--2----2--2----2--2--2--|--2----2--2----2--2--2--|--2----2--2----2--2--2--|
--2----2--2----2--2--2--|--2----2--2----2--2--2--|--0----0--0----0--0--0--|
--0----0--0----0--0--0--|--0----0--0----0--0--0--|--0----0--0----0--0--0--|
------------------------|------------------------|------------------------|


  v    v  ^    ^  v  ^     v    v  ^    ^  v  ^     v    v  ^    ^  v  ^   
  Q    E  Q    E  E  E     Q    E  Q    E  E  E     Q    E  Q    E  E  E   
--2----2--2----2--2--2--|--2----2--2----2--2--2--|--2----2--2----2--2--2--|
--2----2--2----2--2--2--|--3----3--3----3--3--3--|--2----2--2----2--2--2--|
--2----2--2----2--2--2--|--4----4--4----4--4--4--|--2----2--2----2--2--2--|
--4----4--4----4--4--4--|--4----4--4----4--4--4--|--4----4--4----4--4--4--|
--4----4--4----4--4--4--|--2----2--2----2--2--2--|--4----4--4----4--4--4--|
------------------------|------------------------|------------------------|


  v    v  ^    ^  v  ^     v    v  ^    ^  v  ^     v    v  ^    ^  v  ^   
  Q    E  Q    E  E  E     Q    E  Q    E  E  E     Q    E  Q    E  E  E   
--0----0--0----0--0--0--|--0----0--0----0--0--0--|--0----0--0----0--0--0--|
--0----0--0----0--0--0--|--3----3--3----3--3--3--|--2----2--2----2--2--2--|
--0----0--0----0--0--0--|--0----0--0----0--0--0--|--2----2--2----2--2--2--|
--2----2--2----2--2--2--|--2----2--2----2--2--2--|--2----2--2----2--2--2--|
--2----2--2----2--2--2--|--2----2--2----2--2--2--|--0----0--0----0--0--0--|
------------------------|------------------------|------------------------|


  v    v  ^    ^  v       v                   v                     
  Q    E  Q    E  Q       W                   Q    E  Q    E  Q     
--0----0--0----0-------|--0----------------|--1-------1-------L----|
--2----2--2----2-------|--2----------------|--3----3-------3--L----|
--2----2--2----2-------|--2----------------|--2--------------------|
--2----2--2----2-------|--2----------------|--0---------------0----|
--0----0--0----0--0----|--0----------------|-----------------------|
-----------------------|-------------------|-----------------------|


          v                       v                       v             
  Q    E  Q    E  Q       Q    E  Q    E  Q       Q    E  Q    E  Q     
--L-------1-------L----|--L-------1------------|----------1------------|
--L-------3-------L----|--L-------3-------L----|--L-------3------------|
-------2-------2-------|-------2-------2--L----|--L----2-------2--L----|
-----------------------|-----------------------|-----------------------|
--3---------------3----|--2---------------2----|--1---------------1----|
-----------------------|-----------------------|-----------------------|


  v                   v                       v                     
  W                   Q    E  Q    E  Q       Q    E  Q    E  Q     
--1----------------|--0--------------------|--3-------3------------|
--3----------------|--1--------------------|--3------------3-------|
--2----------------|--0-------0------------|--0----0----------0----|
--0----------------|--2------------2-------|--0--------------------|
-------------------|--3----3----------3----|--2--------------------|
-------------------|-----------------------|-----------------------|


  v                       v                               v             
  Q    E  Q    E  Q       Q    E  Q    E  Q       Q    E  Q    E  Q     
--0-------0------------|--1-------1-------L----|--L-------1-------L----|
--2------------2-------|--3----3-------3--L----|--L-------3-------L----|
--2----2----------2----|--2--------------------|-------2-------2-------|
--2--------------------|--0---------------0----|-----------------------|
-----------------------|-----------------------|--3---------------3----|
-----------------------|-----------------------|-----------------------|


          v                       v               v                 
  Q    E  Q    E  Q       Q    E  Q    E  Q       W                 
--L-------1------------|----------1------------|--1----------------|
--L-------3-------L----|--L-------3------------|--3----------------|
-------2-------2--L----|--L----2-------2--L----|--2----------------|
-----------------------|-----------------------|--0----------------|
--2---------------2----|--1---------------1----|-------------------|
-----------------------|-----------------------|-------------------|


  v                       v    v  ^    ^  v  ^     v    v  ^    ^  v  ^   
  Q    E  Q    E  Q       Q    E  Q    E  E  E     Q    E  Q    E  E  E   
--0--------------------|--1----1--1----1--1--1--|--0----0--0----0--0--0--|
--1--------------------|--1----1--1----1--1--1--|--2----2--2----2--2--2--|
--0-------0------------|--2----2--2----2--2--2--|--2----2--2----2--2--2--|
--2------------2-------|--3----3--3----3--3--3--|--2----2--2----2--2--2--|
--3----3----------3----|--3----3--3----3--3--3--|--0----0--0----0--0--0--|
-----------------------|------------------------|------------------------|


  v                               v                       v             
  Q    E  Q    E  Q       Q    E  Q    E  Q       Q    E  Q    E  Q     
--1-------1-------L----|--L-------1-------L----|--L-------1------------|
--3----3-------3--L----|--L-------3-------L----|--L-------3-------L----|
--2--------------------|-------2-------2-------|-------2-------2--L----|
--0---------------0----|-----------------------|-----------------------|
-----------------------|--3---------------3----|--2---------------2----|
-----------------------|-----------------------|-----------------------|


          v                 v                     v                     
  Q    E  Q    E  Q         Q.     Q.     Q       Q.     Q.     Q     5x
----------1------------||---1------0-----------|----------------------||
--L-------3------------||---3-------------3----|--3------1------------||
--L----2-------2--L----||*--2------------------|--0------------------*||
-----------------------||*--0------------------|--2------------------*||
--1---------------1----||----------------------|--3-------------3-----||
-----------------------||----------------------|----------------------||


  v                     v                     v                   
  Q.     Q.     Q       Q.     Q.     Q       Q.     Q.     Q     
--1------0-----------|---------------------|--1------0-----------|
--3-------------3----|--3------1-----------|--3-------------3----|
--2------------------|--0------------------|--2------------------|
--0------------------|--2------------------|--0------------------|
---------------------|--3-------------3----|---------------------|
---------------------|---------------------|---------------------|


  v                     v                     v                    
  Q.     Q.     Q       Q.     Q.     Q       Q.     Q.     Q      
---------------------|--1------0-----------|---------------------||
--3------1-----------|--3-------------3----|--3------1-----------||
--0------------------|--2------------------|--0------------------||
--2------------------|--0------------------|--2------------------||
--3-------------3----|---------------------|--3-------------3----||
---------------------|---------------------|---------------------||




Duration Legend
---------------
W - whole
H - half
Q - quarter
E - 8th
S - 16th
T - 32nd
X - 64th
. - note dotted
|-n-|  - n-tuplets


Tablature Legend
----------------
L - tied note
x - dead note
g - grace note
(n) - ghost note
> - accentuded note
NH - natural harmonic
AH - artificial harmonic
TH - tapped harmonic
SH - semi harmonic
PH - pitch harmonic
h - hammer on
p - pull off
b - bend
br - bendRelease
pb - preBend
pbr - preBendRelease
brb - bendReleaseBend
\n/ - tremolo bar dip
\n - tremolo bar dive
-/n - tremolo bar Release up
/n\ - tremolo bar inverted dip
/n - tremolo bar return
-\n - tremolo bar Release down
S - shift slide
s - legato slide
/ -  slide into from below or out of upwards
\ -  slide into from above or out of downwards
~ - vibrato
W - wide vibrato
tr - trill
TP - tremolo picking
T - tapping
S - slap
P - pop
< - fade in
^ - brush up
v - brush down

                                     by: WillLemus, Wilians_lemus@hotmail.com
Tap to rate this tab
 
# A B C D E F G H I J K L M N O P Q R S T U V W X Y Z