Guitaretab - guitar tabs
Song name
# A B C D E F G H I J K L M N O P Q R S T U V W X Y Z

Beatles - The Long And Winding Road tab

    ------------------------------------------------------------

    THE BEATLES - THE LONG AND WINDING ROAD (Lennon & McCartney)
                  From LET IT BE NAKED album. Released on 18th, 
                  November 2003.

    ------------------------------------------------------------

    Tabbed by:PJVillanueva





    The long and winding road
    That leads to your door
    Will never disappear
    I've seen that road before
    It always leads me here
    Lead me to your door

    The wild and windy night
    That the rain washed away
    Has left a pool of tears
    Crying for the day
    Why leave me standing here
    Let me know the way

    Many times I've been alone
    And many times I've cried
    Any way you'll always know
    The many ways Ive tried

    But still they lead me back
    To the long winding road
    You left me standing here
    A long long time ago
    Dont keep me standing here
    Lead me to your door

    But still they lead me back
    To the long winding road
    You left me standing here
    A long long time ago
    Dont leave me waiting here
    Lead me to your door
    Yeah, yeah, yeah, yeah 





                          
  e|------- ------- ------- -------|------- ------- ------- -------|
  B|-------------------------------|------------------------------3|
  G|-------------------------------|-------------------------------|
  D|-------------------------------|-------------------------------|
  A|-------------------------------|-------------------------------|
  E|-------------------------------|-------------------------------|
                                                                  The



                                Ab      Abadd9
  e|------- ------- ------- ----4--|------- ------- ------- -------|
  B|4-------3-------------------4--|----4---4-------4---4----------|
  G|----------------3-----------5--|----5---5-------5---5----------|
  D|--------------------5-------6--|----6---6-------6---6----------|
  A|3---------------------------6--|----x---x-------x---x----------|
  E|----------------------------4--|----6---6-------6---6----------|

  e|------- ------- ------- -------|------- ------- ------- -------|
  B|-------------------------------|----4---4-------4---4----------|
  G|-------------------------------|----5---5-------5---5----------|
  D|-------------------------------|----6---6-------6---6----------|
  A|-------------------------------|-------------------------------|
  E|-------------------------------|-------------------------------|
    long    and     winding     road                that        leads



    Eb              Eb6 Eb7     Abadd9
  e|6------ 6------ ----6-- ----6--|------- ------- ------- 6------|
  B|8-------8-------8---8-------4--|--------------------8-------8--|
  G|8-------8-------x---6-------5--|------------5---8--------------|
  D|8-------8------10---8-------x--|--------6----------------------|
  A|6-------6-------6---6-------6--|-------------------------------|
  E|----------------------------4--|-------------------------------|

  e|3------ ------- ------- -------|------- ------- ------- -------|
  B|4------------------------------|-------------------------------|
  G|3------------------------------|-------------------------------|
  D|-------------------------------|-------------------------------|
  A|-------------------------------|-------------------------------|
  E|-------------------------------|-------------------------------|
                    to  your    door



    Ab              Gm7             Cm
  e|4------ 4------ 3------ 3------|3------ ------- ------- -------|
  B|4-------4-------6-------6------|4-------3---2------------------|
  G|5-------5-------3-------3------|5-------------3----------------|
  D|6-------6-------5-------5------|5---------------5-------5------|
  A|6-------6-------5-------5------|3-----------------6-3-------6--|
  E|4-------4-------3-------3------|-------------------------------|
            Will    never       disappear



    Fm      Fm7     Bb              Eb7sus4                 Eb7
  e|1------ 1------ 1------ 1------|6------ 6------ 6------ 6------|
  B|1-------4-------3-------3------|9-------9-------9-------8------|
  G|1-------1-------3-------3------|6-------6-------6-------6------|
  D|3---3---3---3---3---3---3---3--|8-------8-------8-------8------|
  A|3-------3-------1-------1------|6---6---6---6---6---6---6---6--|
  E|1-------1----------------------|-------------------------------|

  e|------- ------- ------- -------|------- ------- ------- -------|
  B|-------------------------------|6-------6-------6-------8------|
  G|-------------------------------|6-------6-------6-------8------|
  D|-------------------------------|6-------6-------6-------8------|
  A|-------------------------------|-------------------------------|
  E|-------------------------------|-------------------------------|
          Ive that          before
            seen  road


    Ab              Gm7             Cm
  e|4------ 4------ 3------ 3------|3------ ------- ------- -------|
  B|4-------4-------6-------6------|4-------4---3------------------|
  G|5-------5-------3-------3------|5---5---------3----------------|
  D|6-------6---6---5-------5---5--|5-------------------5---5------|
  A|6-------6-------5-------5------|3---------------------6-----6--|
  E|4-------4-------3-------3------|-------------------------------|

  e|------- ------- ------- -------|------- ------- ------- -------|
  B|4------------------------------|-------------------------------|
  G|5------------------------------|-------------------------------|
  D|6------------------------------|-------------------------------|
  A|-------------------------------|-------------------------------|
  E|-------------------------------|-------------------------------|
            It      always      leads   me here 



    Fm7             Bb              Eb
  e|1------ 1------ 1------ 4------|6------ 6------ 6------ 6------|
  B|4-------4-------3-------3------|8-------8-------8-------8-----3|
  G|1-------1-------3---3---3---3--|8-------8-------8-------8------|
  D|3---3---3---3---3-------3------|8-------8-------8-------8------|
  A|3-------3-------1-------1------|6---10--6---6---6---6---6---6--|
  E|1-------1----------------------|-------------------------------|
              Lead  to      your        door                      The
                  me 


    00:43

  e|------- ------- ------- ----4--|------- ------- ------- ----6--|
  B|4-------3-------------------4--|----4---4-------4---4-------8--|
  G|----------------3-----------5--|----5---5-------5---5-------8--|
  D|--------------------5-------6--|----6---6-------6---6-------8--|
  A|3---------------------------6--|----x---x-------x---x-------6--|
  E|----------------------------4--|----6---6-------6---6----------|

  e|------- ------- ------- -------|------- ------- ------- -------|
  B|-------------------------------|-----4--4-------4---4----------|
  G|-------------------------------|-----5--5-------5---5----------|
  D|-------------------------------|-----6--6-------6---6----------|
  A|-------------------------------|-------------------------------|
  E|-------------------------------|-------------------------------|
    wild    and     windy       night               that        rain
                                                        the



  e|------- ------- 6---6-- ----6--|6------ ------- ------- 6------|
  B|----------------8---8-------8--|4-------------------8-------8--|
  G|----------------8---8-------8--|5-----------5---8--------------| 
  D|----8-----------8---8-------8--|x-------6----------------------|
  A|10------6---10--6---6-------6--|6------------------------------|
  E|-------------------------------|4------------------------------|

  e|3------ ------- ------- -------|------- ------- ------- -------|
  B|4------------------------------|-------------------------------|
  G|3------------------------------|-------------------------------|
  D|-------------------------------|-------------------------------|
  A|-------------------------------|-------------------------------|
  E|-------------------------------|-------------------------------|
                    washed
                        away



  e|4------ 4------ 3------ 3------|2------ ------- ------- -------|
  B|4-------4-------6-------6------|3-------3---2------------------|
  G|5-------5-------3-------3------|4---------------3--------------|
  D|6-------6-------5-------5------|4---4-------------5-------5-5--|
  A|6-------6-------5-------5------|2-------------------6---6---6--|
  E|4-------4-------3-------3------|----------------------3--------|

  e|8------ ------- 10----- -------|8------ ------- ------- -------|
  B|9---------------11-------------|8------------------------------|
  G|8---------------12-------------|8------------------------------|
  D|-------------------------------|-------------------------------|
  A|-------------------------------|-------------------------------|
  E|-------------------------------|-------------------------------|
           Has      left    a   pool of tears




  e|1------ 1------ 1------ 1------|6------ 6------ 6------ 6------|
  B|1-------1-------3-------3------|9-------9-------9-------8------|
  G|1-------1-------3---3---3---3--|6-------6-------6-------6------|
  D|3---3---3---3---3-------3------|8-------8-------8-------8------|
  A|3-------3-------1-------1------|6---6---6---6---6---6---6---6--|
  E|1-------1----------------------|-------------------------------|

  e|8------ ------- 8------ -------|------- 13----- 13----- 15-----| 
  B|9--------------10--------------|--------14------14------16-----|
  G|8---------------8--------------|--------13------12------15-----|
  D|-------------------------------|-------------------------------|
  A|-------------------------------|-------------------------------|
  E|-------------------------------|-------------------------------|

  e|------- ------- ------- -------|------- ------- ------- -------|
  B|-------------------------------|6-------6-------6-------8------|
  G|-------------------------------|6-------6-------6-------8------|
  D|-------------------------------|6-------6-------6-------8------|
  A|-------------------------------|-------------------------------|
  E|-------------------------------|-------------------------------|
                Crying for  the day
                



  e|4------ 4------ 3------ 3------|3------ ------- ------- -------|
  B|4-------4-------6-------6------|4-------4---3-------3----------|
  G|5-------5-------3-------3------|5---5---5-------3---3----------|
  D|6---6---6---6---5---5---5---5--|5-------5-----------5----------|
  A|6-------6-------5-------5------|3-----------------------6---3--|
  E|4-------4-------3-------3------|-------------------------------|

  e|11----- ------- 10----- -------|8------ ------- ------- -------|
  B|13--------------11-------------|8------------------------------|
  G|13--------------12-------------|8------------------------------|
  D|-------------------------------|-------------------------------|
  A|-------------------------------|-------------------------------|
  E|-------------------------------|-------------------------------|

  e|------- ------- ------- -------|------- ------- ------- -------|
  B|4------------------------------|-------------------------------|
  G|5------------------------------|-------------------------------|
  D|6------------------------------|-------------------------------|
  A|-------------------------------|-------------------------------|
  E|-------------------------------|-------------------------------|
                Why leave   me  standing 
                                        here



  e|1------ 1------ 1------ 1------|6------ 6------ ------- 6------|
  B|4-------4-------3-------3------|8-------8---------------8------|
  G|1-------1-------3---3---3---3--|8-------8---------------8------|
  D|3---3---3---3---3-------3------|8-------8---------------8------|
  A|3-------3-------1-------1------|6-------6-------------------6--|
  E|1-------1----------------------|-------------------------------|

  e|8------ ------- 8------ -------|6------ ------- ------- -------|
  B|9---------------6--------------|8------------------------------|
  G10---------------7--------------|8------------------------------|
  D|-------------------------------|-------------------------------|
  A|-------------------------------|-------------------------------|
  E|-------------------------------|-------------------------------|

  e|------- ------- ------- -------|------- ------- ------- -------|
  B|1---------------3--------------|4------------------------------|
  G|1---------------3--------------|3------------------------------|
  D|3---------------3--------------|5------------------------------|
  A|-------------------------------|-------------------------------|
  E|-------------------------------|-------------------------------|
              Let know      the way
                me 


    01:26
    Eb              Ab              Eb              Fm      Bbadd9
  e|6------ 6------ 8------ 8------|6------ 6------ 8------ 8------|
  B|8-------8-------9-------9------|8-------8-------9-------6------|
  G|8-------8-------8-------8------|8-------8------10-------7------|
  D|8-------8-------6-------6------|8-------8------10-------x------|
  A|6-------6----------------------|6-------6-------8-------8------|
  E|-------------------------------|------------------------6------|

  e|------- ------- ------- -------|------- ------- ----11- ----13-|
  B|11--------------13-------------|11--------------13------15-----|
  G|12--------------13-------------|12--------------13------15-----|
  D|13--------------13-------------|13--------------13------15-----|
  A|-------------------------------|-------------------------------|
  E|-------------------------------|-------------------------------|

  e|------- ------- ------- -------|------- ------- ------- -------|
  B|-------------------------------|-------------------------------|
  G|------------------------5------|--------------------5-------7--|
  D|--------------------6----------|8-----------------------8------|
  A|-------------------------------|-------------------------------|
  E|-------------------------------|-------------------------------|
    Many      I've alone        and many      I've
        times    been                  times      cried


    Eb              Ab              Eb              Fm7     Bbadd9
  e|6------ 6------ 8------ 8------|6------ 6------ 8------ 8------|
  B|8-------8-------9-------9------|8-------8-------9-------6------|
  G|8-------8-------8-------8------|8-------8------10-------7------|
  D|8-------8-------6-------6------|8-------8------10-------x------|
  A|6-------6----------------------|6-------6-------8-------8------|
  E|-------------------------------|------------------------6------|

  e|11----- 15----- 11----- 16-----|15----- 11----- ----11- ----13-|
  B|11--------------13-------------|16------11------13------15-----|
  G|12--------------13-------------|15------12------13------15-----|
  D|-------------------------------|----------------13------15-----|
  A|-------------------------------|-------------------------------|
  E|-------------------------------|-------------------------------|

  e|------- ------- ------- -------|------- ------- ------- -------|
  B|-------------------------------|----------------------------3--|
  G|------------------------5------|----3---------------5----------|
  D|8---8-------8---6---6-------6--|5---------------3--------------|
  A|-------------------------------|-------------------------------|
  E|-------------------------------|-------------------------------|
    Any way   you'll    know      the   ways  I've               But
                  always            many         tried


    01:40

  e|------- ------- ------- ----4--|------- ------- ------- ----6--| 
  B|4-------3-------------------4--|----4---4-------4---4-------8--|
  G|----------------3-----------5--|----5---5-------5---5-------8--|
  D|--------------------5-------6--|----6---6-------6---6-------8--|
  A|3---------------------------6--|----x---x-------x---x-------6--|
  E|----------------------------4--|----6---6-------6---6----------|

  e|11----- ------- ------- -------|------- ------- ------- -------|
  B|13-----------------------------|-------------------------------|
  G|12-----------------------------|-------------------------------|
  D|-------------------------------|-------------------------------|
  A|-------------------------------|-------------------------------|
  E|-------------------------------|-------------------------------|

  e|------- ------- ------- -------|------- ------- ------- -------|
  B|4------------------------------|----4---4-------4---4----------|
  G|5------------------------------|----5---5-------5---5----------|
  D|5------------------------------|----6---6-------6---6----------|
  A|-------------------------------|-------------------------------|
  E|-------------------------------|-------------------------------| 
    still   they    lead        back                to  the     long
                        me



  e|------- ------- ----9-- ----6--|------- ------- ------- 6------|
  B|--------------------8-------4--|--------------------8-------8--|  
  G|--------------------6-------5--|------------5---8--------------|
  D|--------8------10---8-------x--|--------6----------------------|  
  A|---10-------10--6---6-------6--|-------------------------------|
  E|----------------------------4--|-------------------------------|

  e|6------ ------- ------- ----6--|------- ------- ------- -------|
  B|8---------------------------8--|-------------------------------|
  G|8---------------------------8--|-------------------------------|
  D|----------------------------6--|-------------------------------|
  A|-------------------------------|-------------------------------|
  E|-------------------------------|-------------------------------|
[ Tab from: http://www.guitaretab.com/b/beatles/28067.html ]
  e|3------ ------- ------- -------|------- ------- ------- -------|
  B|4------------------------------|--------------------8----------|
  G|3------------------------------|----------------8-----------8--|
  D|-------------------------------|-------------------------------|
  A|-------------------------------|-------------------------------|
  E|-------------------------------|-------------------------------|
                    winding     road




  e|4------ 4------ 3------ 3------|3------ ------- ------- -------|
  B|4-------4-------6-------6------|4-------3---2------------------|  
  G|5-------5-------3-------3------|5-------------3----------------|
  D|6---6---6---6---5---5---5---5--|5---5-----------5-------5------|
  A|6-------6-------5-------5------|3-----------------6-3-------6--|
  E|4-------4-------3-------3------|-------------------------------|

  e|8------ ------- 10----- -------|8------ ------- ------- -------|
  B|9---------------11-------------|8------------------------------|
  G|8---------------12-------------|8------------------------------|
  D|-------------------------------|-------------------------------|
  A|-------------------------------|-------------------------------|
  E|-------------------------------|-------------------------------|

  e|------- ------- ------- -------|------- ------- ------- -------|
  B|--------4---------------3------|--------1----------------------|
  G|----5---------------3----------|----0-------0---3--------------|
  D|6-----------6---5-----------5--|1------------------------------|
  A|-------------------------------|-------------------------------|
  E|-------------------------------|-------------------------------|
            You     left    me  waiting here




  e|1------ 1------ 1------ 1------|6------ 6------ 6------ 6------| 
  B|1-------1-------3-------3------|9-------9-------9-------8------|
  G|1-------1-------3---3---3---3--|6-------6-------6-------8------|
  D|3---3---3---3---3-------3------|8-------8-------8-------8------|
  A|3-------3-------1-------1------|6---6---6---6---6---6---6---6--|
  E|1-------1----------------------|-------------------------------|

  e|8------ ------- 10----- -------|------- 13----- 13----- 15-----|
  B|9---------------11-------------|--------14------14------16-----|
  G|8---------------10-------------|--------13------13------15-----|
  D|-------------------------------|-------------------------------|
  A|-------------------------------|-------------------------------|
  E|-------------------------------|-------------------------------|

  e|------- ------- ------- -------|------- 1------ 1------ -------|
  B|4---------------4--------------|--------2-------2-------4------|
  G|1---------------1--------------|--------3-------3-------3------|
  D|3---------------3--------------|------------------------5------|
  A|-------------------------------|6------------------------------|
  E|----------------------------6--|-------------------------------|
            a  long   long  time 
                                ago



  e|4------ 4------ 3------ 3------|3------ ------- ------- -------|
  B|4-------4-------6-------6------|4-------4-3--------------------|   
  G|5-------5-------3-------3------|5-------------3---------5------|
  D|6---6---6---6---5---5---5---5--|5---5-----------5---5---5---6--|
  A|6-------6-------5-------5------|3-------------------6-------6--|
  E|4-------4-------3-------3------|-------------------------------|

  e|11----- ------- 10----- -------|8------ ------- ------- -------|
  B|13--------------11-------------|8------------------------------|
  G|13--------------12-------------|8------------------------------|
  D|-------------------------------|-------------------------------|
  A|-------------------------------|-------------------------------|
  E|-------------------------------|-------------------------------|

  e|------- ------- ------- -------|------- ------- ------- -------| 
  B|4----------------3-------------|1------------------------------|
  G|5----------------3-------------|0------------------------------|
  D|6----------------5-------------|1------------------------------|
  A|-------------------------------|-------------------------------|
  E|-------------------------------|-------------------------------|
                Don't   keep standing
                          me        here



  e|1------ 1------ 1------ 1------|6------ 6------ 6------ 6------|
  B|4-------4-------3-------3------|8-------8-------8-------8------|
  G|1-------1-------3---3---3---3--|8-------8-------8-------8------|
  D|3---3---3---3---3-------3------|8-------8---8---8-----------8--|
  A|3-------3-------1-------1------|6-------6-------6--------------|
  E|1-------1----------------------|-------------------------------|

  e|8------ ------- 10----- -------|6------ ------- ------- -------|
  B|9---------------11-------------|8------------------------------|
  G10---------------10-------------|8------------------------------|
  D|-------------------------------|-------------------------------|
  A|-------------------------------|-------------------------------|
  E|-------------------------------|------------------------------6| 

  e|------- ------- ------- -------|------- ------- ------- -------|
  B|1---------------3--------------|4------------------------------|
  G|1---------------3--------------|3------------------------------|
  D|3---------------3--------------|5------------------------------|
  A|-------------------------------|-------------------------------|
  E|-------------------------------|-------------------------------|
            Lead    to      your        door
                me


    02:22
    Eb              Fm7             Eb              Fm7     Fm  Bb
  e|------- ------- ------- -------|------- ------- ------- -------|
  B|4-------4-------4-------1------|4-------4-------4-------1---3--|
  G|3---3---3---3---1-------1---1--|3-------3-------1-------1---3--|
  D|5-------5-------3---3---3------|5---5---5---5---3---3---3---3--|
  A|-------------------------------|-------------------------------|
  E|-------------------------------|-------------------------------|

  e|------- ------- ------- -------|------- ------- ------- -------|
  B|-------------------------------|-------------------------------|
  G|------------------5-6----------|-------------------------------|
  D|----5---------6-8--------------|----5-6-8-------6-5------------|
  A|6-8-------------------------8--|------------6-------8---8-6-5--|
  E|-------------------------------|-------------------------------|

  e|------- ------- ------- -------|------- ------- ------- -------|
  B|----8--------------------------|--------4----------------------|
  G|------------------------5------|------------3-----------3------|
  D|------------8---------------6--|----5-----------6---6----------|
  A|--------------------8----------|-------------------------------|
  E|-------------------------------|-------------------------------|





  e|------- ------- ------- -------|------- ------- ------- -------|
  B|4-------4-------4-------4------|4-------4-------4-------3------|
  G|3---3---3---3---1---1---1---1--|3-------3-------1-------3---3--|
  D|5-------5-------3-------3------|5---5---5---5---3---3---3------|
  A|-------------------------------|-------------------------------|
  E|-------------------------------|-------------------------------|

  e|------- ------- ------- -------|------- ------- ------- -------|
  B|-------------------------------|-------------------------------|
  G|-------------------------------|-------------------------------|
  D|--------5--------5-6--------8--|----5-6-5----------------------|
  A|----6-8-----6---8-------8------|------------6---8-6-----5------|
  E|6------------------------------|-------------------------------|

  e|------- ------- ------- -------|------- ------- ------- -------|
  B|4------------------------------|----------------4-------3------|
  G|3---3-----------1--------------|3---------------1-------3------|
  D|5-------------------3----------|----------------3-------3------|
  A|-------------------------------|----------------3-------1------|
  E|-------------------------------|----------------1--------------|
                                                                 But


    02:36

  e|------- ------- ------- ----4--|------- ------- ------- ----6--| 
  B|4-------3-------------------4--|----4---4-------4---4-------8--|
  G|----------------3-----------5--|----5---5-------5---5-------8--|
  D|--------------------5-------6--|----6---6-------6---6-------8--|
  A|3---------------------------6--|----x---x-------x---x-------6--|
  E|----------------------------4--|----6---6-------6---6----------|

  e|------- ------- ------- -------|------- ------- ------- -------|
  B|-------------------------------|-------------------------------|
  G|-------------------------------|-------------------------------|
  D|-------------------------------|-------------------------------|
  A|6------------------------------|-------------------------------|
  E|-------------------------------|-------------------------------|

  e|3------ ------- ------- -------|------- ------- ------- -------|
  B|4------------------------------|----4---4-------4---4----------|
  G|5------------------------------|----5---5-------5---5----------|
  D|5------------------------------|----6---6-------6---6----------|
  A|3------------------------------|-------------------------------|
  E|-------------------------------|-------------------------------|
    still   they    lead        back                to  the     long
                        me



  e|------- ------- 8---9-- ----6--|------- ------- ------- 6------|  
  B|----------------8---8-------4--|--------------------8-------8--|
  G|----------------8---8-------5--|------------5---8--------------|
  D|--------8-------8---8-------x--|--------6----------------------|
  A|---10-------10--6---6-------6--|-------------------------------|
  E|----------------------------4--|-------------------------------|

  e|3------ ------- ------- -------|------- ------- ------- -------|
  B|4------------------------------|----------------4--------------|
  G|3------------------------------|------------5-------5-------5--|
  D|5------------------------------|--------6----------------------|
  A|-------------------------------|-------------------------------|
  E|-------------------------------|-------------------------------|
                    winding     road




  e|4------ 4------ 3------ 3------|2------ ------- ------- -------|
  B|4-------4-------6-------6------|3-------3---2------------------|
  G|5-------5-------3-------3------|4-------------2----------------|
  D|6---6---6---6---5---5---5---5--|4---------------5-------5------|
  A|6-------6-------5-------5------|2-----------------6-3-6-----6--|
  E|4-------4-------3-------3------|------------------------------3|

  e|8------ ------- 10----- -------|8------ ------- ------- -------|
  B|9---------------11-------------|8------------------------------|
  G|8---------------12-------------|8------------------------------|
  D|-------------------------------|-------------------------------|
  A|-------------------------------|-------------------------------|
  E|-------------------------------|-------------------------------|

  e|------- ------- ------- -------|------- ------- ------- -------|
  B|-------------------------------|-------------------------------|
  G|5-------5-------3-------3------|5---------------3--------------|
  D|----6-------6-------5-------5--|------------5------------------|
  A|-------------------------------|-------------------------------|
  E|-------------------------------|-------------------------------|
            You     left    me  waiting here




  e|1------ 1------ 1------ 1------|6------ 6------ 6------ 6------|
  B|1-------1-------3-------3------|9-------9-------9-------8------|  
  G|1-------1-------3---3---3---3--|6-------6-------6-------6------|
  D|3---3---3---3---3-------3------|8-------8-------8-------8------|
  A|3-------3-------1-------1------|6---6---6---6---6---6---6---6--|
  E|1-------1----------------------|-------------------------------|

  e|8------ ------- ------- -------|------- 13----- 13----- 15-----|
  B|9------------------------------|--------14------14------16-----|
  G10------------------------------|--------13------13------15-----|
  D|-------------------------------|-------------------------------|
  A|-------------------------------|-------------------------------|
  E|-------------------------------|-------------------------------|

  e|------- ------- ------- -------|1------ 1------ 1------ -------|
  B|1---------------3--------------|2-------2-------2-------4------|
  G|1---------------3--------------|3-------3-------3-------3------|
  D|3---------------3--------------|------------------------5------|
  A|3---------------1--------------|-------------------------------|
  E|-------------------------------|-------------------------------|
            a  long   long  time 
                                ago



  e|4------ 4------ 3------ 3------|3------ ------- ------- -------|
  B|4-------4-------6-------6------|4-------4---3------------------|
  G|5-------5-------3-------3------|5---------------3--------------|
  D|6---6---6-------5---5---5---5--|5-------------------5----------|
  A|6-------6-------5-------5------|3-----------------------6---3--|
  E|4-------4-------3-------3------|-------------------------------|

  e|------- ------- 13----- 13-----|11----- ------- ------- -------|
  B|13--------------11------11-----|13-----------------------------|
  G|13--------------12------12-----|12-----------------------------|
  D|13-----------------------------|-------------------------------|
  A|-------------------------------|-------------------------------|
  E|-------------------------------|-------------------------------|

  e|------- ------- ------- -------|------- ------- ------- -------|
  B|4---------------3-------3------|--------4-------4--------------|
  G|5---------------3-------3------|------------------------5------|
  D|6---------------5-------5------|------------5-------5----------|
  A|-------------------------------|-------------------------------|
  E|-------------------------------|-------------------------------|
            Don't   leave      standing here
                        me      



  e|1------ 1------ 1------ 1------|------- ------- ------- ----4--|
  B|4-------4-------3-------3------|4-------3-------------------4--|
  G|1-------1-------3---3---3---3--|----------------3-----------5--|
  D|3---3---3---3---3-------3------|--------------------5-------6--|
  A|3-------3-------1-------1------|3---------------------------6--|
  E|1-------1----------------------|----------------------------4--|

  e|8------ ------- 10----- -------|------- ------- ------- -------|
  B|9---------------11-------------|-------------------------------|
  G10---------------10-------------|-------------------------------|
  D|-------------------------------|-------------------------------|
  A|-------------------------------|-------------------------------|
  E|-------------------------------|-------------------------------|

  e|------- ------- ------- -------|------- ------- ------- -------|
  B|--------1---------------3------|--------3----------------------|
  G|------------1---------------3--|----------------3--------------|
  D|----3---------------3----------|-------------------------------|
  A|3---------------1--------------|-------------------------------|
  E|-------------------------------|-------------------------------|
            Lead   to         your      door
                me



  e|------- ------- ------- -------|------- ------- ------- -------|
  B|----4---4-------4---4----------|4------------------------------|
  G|----5---5-------5---5----------|3------------------------------|
  D|----6---6-------6---6----------|5------------------------------|
  A|-------------------------------|6------------------------------|
  E|----6---6-------6---6----------|-------------------------------|

  e|------- ------- ------- -------|------- ------- ------- -------|
  B|-------------------------------|------------4------------------|
  G|-------------------------------|----------5---5-----------5----|
  D|----------------------------5--|------5-6-------6-5---5-6---6--|
  A|----------------6---8----------|----6---------------6----------|
  E|------------6------------------|--6----------------------------|

  e|----8-- 11----- ------- -------|------- ------- ------- -------|
  B|----9----9------11--13---------|-------------------------------|
  G|---10---10------13--13---------|-------------------------------|
  D|----------------13--13---------|-------------------------------|
  A|-------------------------------|-------------------------------|
  E|-------------------------------|-------------------------------|

  e|------- ------- ------- -------|------- ------- ------- -------|
  B|----4---4-------4---4----------|4------------------------------|
  G|----5---5-------5---5----------|3------------------------------|
  D|----6---6-------6---6----------|5------------------------------|
  A|-------------------------------|-------------------------------|
  E|-------------------------------|-------------------------------|


    x
   (.

  e|------- ------- ------- -------|------- ------- ------- -------|
  B|-------------------------------|-------------------------------|
  G|-------------------------------|-------------------------------|
  D|8------------------------------|-------------------------------|
  A|6------------------------------|-------------------------------|
  E|6------------------------------|-------------------------------|









        B  Bend
        R  Release
        /  Slide up
        \  Slide down
        H  Hammer-on
        P  Pull-off
        ~  Vibrato
        +  Harmonic
        x  Mute note
        .  Play note like a dot in standard notation
        ^  Ties two notes together
        (. Pause



Related for The Long And Winding Road tab