Song name
# A B C D E F G H I J K L M N O P Q R S T U V W X Y Z

Beatles - Why Dont We Do It In The Road tab

    -------------------------------------------------------

    THE BEATLES - WHY DON'T WE DO IT IN THE ROAD (Lennon & 
                  McCartney) From the WHITE ALBUM. Released
                  on 22nd November 1968
   
    -------------------------------------------------------

    Tabbed by:PJVillanueva





   The intro features three percussion elements. Hand banging 
   on his Martin acoustic soundboard (only heard in the intro)
   leads off, drums entering in a sparse, syncopated fashion 
   and echoed hand claps. Many people abhorred this song, not
   knowing that it is a kind of Conceptual Art, as WILD HONEY
   PIE and other songs from THE BEATLES double album. Lennon
   always resented not to have been asked to take part in it.
   McCartney conceded that it was an answer to his exclusion 
   from Revolution #9 (a much more ambitious Conceptual piece)





    Why don't we do it in the road
    Why don't we do it in the road
    Why don't we do it in the road
    Why don't we do it in the road 
    No one will be watching us 
    Why don't we do it in the road




                                    X       X       X       X
    x   x   x   x   x   x   x   x   x   x   x   x   x   x   x   x
                        x x   x x   X                           X X
                           
  e|------- ------- ------- -------|------- ------- ------- -------|
  B|-------------------------------|-------------------------------|
  G|-------------------------------|-------------------------------|
  D|-------------------------------|-------------------------------|
  A|-------------------------------|-------------------------------|
  E|-------------------------------|-------------------------------|

    X       X       X       X       X
    x   x   x   x   x   x   x   x   x
    x   x   x x   x   x   x x x X   X

  e|------- ------- ------- -------|------- ------- ------- -------|
  B|-------------------------------|-------------------------------|
  G|-------------------------------|-------------------------------|
  D|-------------------------------|-------------------------------|
  A|-------------------------------|-------------------------------|
  E|-------------------------------|-------------------------------|
                                        Why don't   do  it  in  the
                                                we do             road

    00:10

  e|------- ------- ------- -------|------- ------- ------- -------|
  B/3---3---3---3---3---3---3---3--/3---3---3---3---3---3---3---3--|
  G/2---2---2---2---2---2---2---2--/2---2---2---2---2---2---2---2--|
  D/4---4---4---4---4---4---4---4--/4---4---4---4---4---4---4---4--|
  A|-------------------------------|-------------------------------|
  E|-------------------------------|-------------------------------|
                                        Why don't   do  it  in  the
                                                we                road




  e|------- ------- ------- -------|------- ------- ------- -------|
  B/3---3---3---3---3---3---3---3--|3---3---3---3---3---3---3---3--|
  G/2---2---2---2---2---2---2---2--|5---5---5---5---5---5---5---5--|
  D/4---4---4---4---4---4---4---4--|4---4---4---4---4---4---4---4--|
  A|-------------------------------|5---5---5---5---5---5---5---5--|
  E|-------------------------------|-------------------------------|
                                        Why don't do  it  in   the
                                                we                road
                        Aaaahh

    00:20

  e|------- ------- ------- -------|------- ------- ------- -------|
  B/3---3---3---3---3---3---3---3--|3---3---3---3---3---3---3---3--|
  G/4---4---4---4---4---4---4---4--|4---4---4---4---4---4---4---4--|
  D/5---5---5---5---5---5---5---5--|3---3---3---3---3---3---3---3--|
  A|-------------------------------|-------------------------------|
  E|-------------------------------|-------------------------------|
                                Mmmmmmm Why don't do  it  in   the
                                                we                road



  e|------- ------- ------- -------|------- ------- ------- -------|
  B/3---3---3---3---3---3---3---3--/3---3---3---3---3---3---3---3--|
  G/5---5---5---5---5---5---5---5--/5---5---5---5---5---5---5---5--|
  D/4---4---4---4---4---4---4---4--/4---4---4---4---4---4---4---4--|
  A/5---5---5---5---5---5---5---5--/5---5---5---5---5---5---5---5--|
  E|-------------------------------|-------------------------------|

  e|----10- ----10- ------- ----10-|----10- ----10- ------- -------|
  B|--------10--------------10-----|--------10--------------10-----|
  G/11-----------------------------/11-----------------------------|
  D|-------------------------------|-------------------------------|
  A|-------------------------------|-------------------------------|
  E|-------------------------------|-------------------------------|



    00:30

  e|------- ------- ------- -------|------- ------- ------- -------|
  B/5---5---5---5---5---5---5---5--|3---3---3---3---3---3---3---3--|
  G/6---6---6---6---6---6---6---6--|4---4---4---4---4---4---4---4--|
  D/5---5---5---5---5---5---5---5--|3---3---3---3---3---3---3---3--|
  A|-------------------------------|-------------------------------|
  E|-------------------------------|-------------------------------|

  e|----5-- ----5-- ------- ----5--|----3-- ----3-- ------- 3------|
  B|--------5--------------/5------|--------3-----------3-------3--|
  G/6------------------------------|4------------------------------|
  D|-------------------------------|-------------------------------|
  A|-------------------------------|-------------------------------|
  E|-------------------------------|-------------------------------|
    No  one will  watching      Why     don't   do  in  the road
                be        us                we    it



  e|2---2-- 2---2-- 2---2-- 2---2--|2------ ------- ------- -------|
  B|1---1---1---1---1---1---1---1--|1------------------------------|
  G|2---2---2---2---2---2---2---2--|2------------------------------|
  D|0---0---0---0---0---0---0---0--|0------------------------------|
  A|-------------------------------|-------------------------------|
  E|-------------------------------|-------------------------------|

  e|----2-- ----2-- ------- 2------|------- ------- ------- -------|
  B|--------1-----------1-------1H3P1------------------------------|
  G/2------------------------------|-------------------------------|
  D|-------------------------------|-------------------------------|
  A|-------------------------------|-------------------------------|
  E|-------------------------------|-------------------------------|



    00:41


  e|5---5-- 5---5-- 5---5-- 5---5--/5---5-- 5---5-- 5---5-- 5---5--| 
  B|7---7---7---7---7---7---7---7--/7---7---7---7---7---7---7---7--|
  G|5---5---5---5---5---5---5---5--/5---5---5---5---5---5---5---5--|
  D|0---0---0---0---0---0---0---0--|0---0---0---0---0---0---0---0--|
  A|-------------------------------|-------------------------------|
  E|-------------------------------|-------------------------------|

  e|----2-- ----2-- ------- ----2--|----2-- ----2-- ----2-- 2---2--| 
  B|--------1---------------1------|--------1-----------1---1---1--|
  G|2------------------------------|2------------------------------|
  D|-------------------------------|-------------------------------|
  A|-------------------------------|-------------------------------|
  E|-------------------------------|-------------------------------|
                                        Why don't   do  it  in  the
                                                we do             road



  e/5---5-- 5---5-- 5---5-- 5------|5---5-- 5---5-- 5---5-- 5---5--| 
  B/7---7---7---7---7---7---7------|7---7---7---7---7---7---7---7--|
  G/5---5---5---5---5---5---5------|5---5---5---5---5---5---5---5--|
  D|0---0---0---0---0---0---0------|0---0---0---0---0---0---0---0--|
  A|-------------------------------|-------------------------------|
  E|-------------------------------|-------------------------------|

  e|----2-- ----2-- ------- ----2--|------- 2------ ----2-- -------| 
  B|--------1---------------1------|----1-------1-----------1------|
  G|2------------------------------|2---------------------------2--|
  D|-------------------------------|-------------------------------|
  A|-------------------------------|-------------------------------|
  E|-------------------------------|-------------------------------|
                                        Why don't   do  it  in  the
                                                we do             road

    00:51

  e|3---3-- 3---3-- 3---3-- 3---3--|3---3-- 3---3-- 3---3-- 3---3--|
  B|3---3---3---3---3---3---3---3--|3---3---3---3---3---3---3---3--|
  G|4---4---4---4---4---4---4---4--|4---4---4---4---4---4---4---4--|
  D|3---3---3---3---3---3---3---3--|3---3---3---3---3---3---3---3--|
  A|-------------------------------|-------------------------------|
  E|-------------------------------|-------------------------------|

  e|----3-- ----3-- ------- ----3--|----3-- ----3-- ------- 3------|
  B|--------3---------------3------|--------3-----------3----------|
  G/4------------------------------/4---------------------------4--|
  D|-------------------------------|-------------------------------|
  A|-------------------------------|-------------------------------|
  E|-------------------------------|-------------------------------|
                                        Why don't   do  it  in  the
                                                we do             road



  e|5---5-- 5---5-- 5---5-- 5---5--/5---5-- 5---5-- 5---5-- 5---5--|
  B|7---7---7---7---7---7---7---7--/7---7---7---7---7---7---7---7--|
  G|5---5---5---5---5---5---5---5--|5---5---5---5---5---5---5---5--|
  D|0---0---0---0---0---0---0---0--|0---0---0---0---0---0---0---0--|
  A|-------------------------------|-------------------------------|
  E|-------------------------------|-------------------------------|

  e|----10- ----10- ------- ----10-|------- ----10- ------- 10-----|
  B|--------10--------------10-----|----10--------------10------10-|
  G/11-----------------------------/11-----------------------------|
  D|-------------------------------|-------------------------------|
  A|-------------------------------|-------------------------------|
  E|-------------------------------|-------------------------------|



    01:01

  e|5---5-- 5---5-- 5---5-- 5---5--|3---3-- 3---3-- ----3-- 3---3--|
  B/5---5---5---5---5---5---5---5--|3---3---3---3-------3---3---3--|
  G/6---6---6---6---6---6---6---6--|4---4---4---4-------4---4---4--|
  D/5---5---5---5---5---5---5---5--|5---5---5---5-------5---5---5--|
  A|-------------------------------|-------------------------------|
  E|-------------------------------|-------------------------------|

  e|----5-- ----5-- ------- ----5--|----3-- ----3-- ------- 3------|
  B|--------5--------------/5------|--------3-----------3-------3--|
  G|6------------------------------|4------------------------------|
  D|-------------------------------|-------------------------------|
  A|-------------------------------|-------------------------------|
  E|-------------------------------|-------------------------------|
    No  one will  watching      Why     don't   do  in  the road
                be        us                we    it

                                   (.                             

  e|5---5-- ----5-- 5------ 5---5--|5------ ------- ------- -------|
  B|7---7-------7---7-------7---7--|7------------------------------|
  G|5---5-------5---5-------5---5--|5------------------------------|
  D|0---0-------0---0-------0---0--|0------------------------------|
  A|-------------------------------|-------------------------------|
  E|-------------------------------|-------------------------------|

  e|----2-- ----2-- ------- 2------|------- ------- ------- -------|
  B|--------1-------1---1-------1--|1------------------------------|
  G/2------------------------------|2------------------------------|
  D|-------------------------------|-------------------------------|
  A|-------------------------------|-------------------------------|
  E|-------------------------------|-------------------------------|
                        Woooooooooooohh Why don't   do  it  in  the
                                                we                road

    01:11

  e|------- ------- ------- -------|------- ------- ------- -------|
  B|3---3---3---3---3---3---3------|3---3---3---3---3---3---3------|
  G|5---5---5---5---5---5---5------|5---5---5---5---5---5---5------|
  D|4---4---4---4---4---4---4------|4---4---4---4---4---4---4------|
  A|5---5---5---5---5---5---5------|5---5---5---5---5---5---5------|
  E|-------------------------------|-------------------------------|

  e|----10- ----10- ------- ----10-|----10- ----10- ------- 10-----|
  B|--------10--------------10-----|--------10----------10---------|
  G/11-----------------------------/11-----------------------------|
  D|-------------------------------|-------------------------------|
  A|-------------------------------|-------------------------------|
  E|-------------------------------|-------------------------------|
                                        Why don't do  it  in    the
                                                we                road



  e|------- ------- ------- -------|------- ------- ------- -------|
  B|3---3---3---3---3---3---3---3--|3---3---3---3---3---3---3---3--|
  G|5---5---5---5---5---5---5---5--|5---5---5---5---5---5---5---5--|
  D|4---4---4---4---4---4---4---4--|4---4---4---4---4---4---4---4--|
  A|5---5---5---5---5---5---5---5--|5---5---5---5---5---5---5---5--|
  E|-------------------------------|-------------------------------|

  e|----10- ----10- ------- ----10-|------- ------- ------- -------|
  B|--------10--------------10-----|--------13---------------------|
  G/11-----------------------------|----11------11------------H----|
  D|-------------------------------|------------------------1012---|
  A|-------------------------------|--------------------12---------|
  E|-------------------------------|-------------------------------|
                                        Why don't   do  it  do  in  
                                                we do     do  it  the

    01:21

  e|3---3-- 3---3-- 3---3-- 3------|3---3-- 3---3-- 3---3-- 3---3--|
  B|3---3---3---3---3---3---3------|3---3---3---3---3---3---3---3--|
  G|4---4---4---4---4---4---4------|4---4---4---4---4---4---4---4--|
  D|3---3---3---3---3---3---3------|3---3---3---3---3---3---3---3--|
  A|-------------------------------|-------------------------------|
  E|-------------------------------|-------------------------------|

  e|----3-- ----3-- ------- ----3--|------- 3------ ------- -------|
  B|--------3---------------3------|----3-------3---------------3--|
  G/4------------------------------/4------------------------------|
  D|-------------------------------|--------------------3---3------|
  A|-------------------------------|-------------------------------|
  E|-------------------------------|-------------------------------|
    road                                Why don't do  it  in  in  road
                                                we              the 




  e|------- ------- ------- -------|------- ------- ------- -------|
  B|3---3---3---3---3---3---3------|----3---3---3---3---3---3---3--|
  G|5---5---5---5---5---5---5------|----5---5---5---5---5---5---5--|
  D|4---4---4---4---4---4---4------|----4---4---4---4---4---4---4--|
  A|5---5---5---5---5---5---5---5--|5---5---5---5---5---5---5---5--|
  E|-------------------------------|-------------------------------|

  e|----2-- ----2-- ------- ----2--|----2-- ----2-- ------- 2------| 
  B|--------1---------------1------|--------1----------------------|
  G|2------------------------------|2---------------------------2--|
  D|-------------------------------|-------------------------------|
  A|-------------------------------|-------------------------------|
  E|-------------------------------|-------------------------------|
                                                                No


    01:32

  e|------- ------- ------- -------|------- ------- ------- -------|
  B|-------------------------------|-------------------------------|
  G|6---6---6---6---6---6---6------|-------------------------------|
  D|5---5---5---5---5---5---5------|3------------------------------|
  A|7---7---7---7---7---7---7------|5------------------------------|
  E|5---5---5---5---5---5---5---5--|3------------------------------|

  e|----5-- ----5-- ------- 5------|------- ------- ------- -------|
  B|--------5-------5---5-------5--|3------------------------------|
  G/6------------------------------|4------------------------------|
  D|-------------------------------|3------------------------------|
  A|-------------------------------|-------------------------------|
  E|-------------------------------|-------------------------------|
        one will  watching              Why don't   do  in  the road
                be        us                    we    it

   (.

  e|------- ------- ------- -------|------- ------- ------- -------|
  B/7------------------------------|-------------------------------|
  G/5------------------------------|-------------------------------|
  D/7------------------------------|-------------------------------|
  A/5------------------------------|-------------------------------|
  E|-------------------------------|-------------------------------|

  e/2------ ------- ------- -------|------- ------- ------- -------|
  BH1------------------------------|-------------------------------|
  G/2------------------------------|-------------------------------|
  D|0------------------------------|-------------------------------|
  A|-------------------------------|-------------------------------|
  E|-------------------------------|-------------------------------|










        B  Bend
        R  Release
        /  Slide up
        \  Slide down
        H  Hammer-on
        P  Pull-off
        ~  Vibrato
        +  Harmonic
        x  Mute note
        .  Play note like a dot in standard notation
        ^  Ties two notes together
        (. Pause



Tap to rate this tab
 
# A B C D E F G H I J K L M N O P Q R S T U V W X Y Z