Beatles - Yesterday tab

This is my own version of this song. Well not completely, someone taught me how to play 
it but then I increased the speed added in some more notes and a scale at the end of the song.
REMEMBER PLAY THE SONG FAST AND HIT EVERY NOTE DOWNWARDS EITHER WITH A PICK OR PICK 
SHAPE PLAYING TO GET THE SPANISH SOUND OR FLAVOR! DO NOT PLUCK OR USE FINGER STYLE UNLESS 
YOU PLAY THE SONG SLOWLY!!!!!! (Important to make the song sound good)

Verse 1

e|------------------------2-2--4-5-7-8--7--5------------5---3--1--0----|
B|--3--2-2---------2------0----3--------5--5--0h1p0-----5---3--1--0--3-|
G|--0--0-0--------0----2-------4--------5--5--0h2--------------------2-|
D|--2------------2----------------------5--5---------------------------|
A|--3-----------3----2--------------------------------3---3------------|
E|-------------3---------------0--------------3-----1------------------|

e|-1-0-0---0--0-0-0-0-0-2-2-2-2-1-1-1p0-0--|
B|-1-1-1---3--1-1-1-1-1-3-3-3-3-1-1-1-1-0--|
G|------------2-2-2-2-2-2-2-2-2-2-2-2-2-0--|
D|------------2-2-2-----0-0-0-0-3-3-3-3-2--|
A|-3-----2----0-0-0---------------------3--|
E|-----------------------------------------|

Verse 2

e|-----------------------------5h7-8---7--5-------------|
B|-3-1-0h1------------------5h7-----9--5--5-------------|
G|-0----------------------7------------5--5-------------|
D|-2--------------------7--------------5--5-------------|
A|-3------3/8-7-5-7-------------------------------------|
E|------------------8-7---------------------------------|

e|------------5--3-1-0----1-0-0----0--0-0-0-0-0-2-2-2-2-1-1-1p0-0--|
B|----0h1p0---5--3-1-0-3--1-1-1----3--1-1-1-1-1-3-3-3-3-1-1-1-1-0--|
G|----0h2--------------2--------------2-2-2-2-2-2-2-2-2-2-2-2-2-0--|
D|------------------------------------2-2-2-----0-0-0-0-3-3-3-3-2--|
A|----------3--3----------3-----2-----0-0-0---------------------3--|
E|--3-----1--------------------------------------------------------|

Bridge

e|---------------5--7--8---7-5-7--5--3--5--------------5--7--8---7-5-7--3---|
B|-----5----5----5--5--10------------3----1----5---5---5--5--10---------3---|
G|-----7----6----5--7--10------------4----0----7---6---5--7--10---------4---|
D|-----7----7----7--5--8-------------3----2----7---7---7--5--8----------3---|
A|-----------------------------------5----3-----------------------------5---|
E|---0---0----0----------------------3-------0----0--0------------------3---|

e|-7--12--7--5------------------------|
B|-6--10--5--3------------------------|
G|-7--12--7--5------------------------|
D|-5--10--5--3------------------------|
A|------------------------------------|
E|------------------------------------|

Verse 1

e|------------------------2-2--4-5-7-8--7--5------------5---3--1--0----|
B|--3--2-2---------2------0----3--------5--5--0h1p0-----5---3--1--0--3-|
G|--0--0-0--------0----2-------4--------5--5--0h2--------------------2-|
D|--2------------2----------------------5--5---------------------------|
A|--3-----------3----2--------------------------------3---3------------|
E|-------------3---------------0--------------3-----1------------------|

e|-1-0-0---0--0-0-0-0-0-2-2-2-2-1-1-1p0-0--|
B|-1-1-1---3--1-1-1-1-1-3-3-3-3-1-1-1-1-0--|
G|------------2-2-2-2-2-2-2-2-2-2-2-2-2-0--|
D|------------2-2-2-----0-0-0-0-3-3-3-3-2--|
A|-3-----2----0-0-0---------------------3--|
E|-----------------------------------------|


Bridge

e|---------------5--7--8---7-5-7--5--3--5--------------5--7--8---7-5-7--3---|
B|-----5----5----5--5--10------------3----1----5---5---5--5--10---------3---|
G|-----7----6----5--7--10------------4----0----7---6---5--7--10---------4---|
D|-----7----7----7--5--8-------------3----2----7---7---7--5--8----------3---|
A|-----------------------------------5----3-----------------------------5---|
E|---0---0----0----------------------3-------0----0--0------------------3---|

e|-7--12--7--5------------------------|
B|-6--10--5--3------------------------|
G|-7--12--7--5------------------------|
D|-5--10--5--3------------------------|
A|------------------------------------|
E|------------------------------------|

Verse 2

e|-----------------------------5h7-8---7--5-------------|
B|-3-1-0h1------------------5h7-----9--5--5-------------|
G|-0----------------------7------------5--5-------------|
D|-2--------------------7--------------5--5-------------|
A|-3------3/8-7-5-7-------------------------------------|
E|------------------8-7---------------------------------|

e|------------5--3-1-0----1-0-0----0--0-0-0-0-0-2-2-2-2-1-1-1p0-0--|
B|----0h1p0---5--3-1-0-3--1-1-1----3--1-1-1-1-1-3-3-3-3-1-1-1-1-0--|
G|----0h2--------------2--------------2-2-2-2-2-2-2-2-2-2-2-2-2-0--|
D|------------------------------------2-2-2-----0-0-0-0-3-3-3-3-2--|
A|----------3--3----------3-----2-----0-0-0---------------------3--|
E|--3-----1--------------------------------------------------------|

!!!!!!!!!!!!!!!!!!!!!!TAP GUITAR!!!!!!!!!!!!!!!!!!!!!!!!!!!!

e|---0-0-0-0-0-2-2-2-2-1-1-1p0-0--|
B|---1-1-1-1-1-3-3-3-3-1-1-1-1-0--|
G|---2-2-2-2-2-2-2-2-2-2-2-2-2-0--|
D|---2-2-2-----0-0-0-0-3-3-3-3-2--|
A|---0-0-0---------------------3--|
E|--------------------------------|

C Major Scale

e|---------------------3h5-7-8^-0---------|
B|-----------------3h5----------0---------|
G|-----------2h4h5--------------0---------|
D|-----2h3h5--------------------2---------|
A|--3-5-------------------------3---------|
E|----------------------------------------|
Tap to rate this tab
 
# A B C D E F G H I J K L M N O P Q R S T U V W X Y Z