Song name
# A B C D E F G H I J K L M N O P Q R S T U V W X Y Z

Beatles - Day Tripper tab

Intro:
      e--------------------------------------|
      b--------------------------------------|
      g--------------------------------------|
      d-----------2-0---4----0-2-------------|
      a---------2-----2---2------------------|
      e---0--34------------------------------|
      Variation:
      e--------------------------------------|
      b--------------------------------------|
      g------------2-0---4---0-2-------------|
      d---------2------2---2-----------------|
      a---0--34------------------------------|
      e--------------------------------------|
       Chorus:
      F#
      She was a day tripper, one way ticket yeah
      A             G#            C                B
      It took me so long, to find out, and I found out
      Next part goes:
      e--------------------------------------------|
      b------------------2-------------------------|
      g--4--------4-2--------2-4-------------------|
      d--4--0-1-4-----4----4-----------------------|
      a--2-----------------------------------------|
      e--------------------------------------------|
      Repeat that 3 times then the solo:
      e--------------------------------10----10-12-12/b-10------|
      b------------------10------12-12----12---------------12---|
      g-------7---7-9/b-----9/r---------------------------------|
      d---9-9---9-----------------------------------------------|
      a---------------------------------------------------------|
      e---------------------------------------------------------|
       F# A  G# C  b
       2  0  4  4  2
       2  2  4  6  4
       3  2  5  6  4
       4  2  6  6  4
       4  0  6  4  2
       2  0  4  4  2
Tap to rate this tab
# A B C D E F G H I J K L M N O P Q R S T U V W X Y Z