Song name
# A B C D E F G H I J K L M N O P Q R S T U V W X Y Z

Beatles - Come Together tab

intro:
|----------------------------|
|----------------------------|
|------------5~--------------|
|---0-0--5/7----7------------|
|----------------------------|
|----------------------------|
Thats the intro. the second part is:
|------------|
|------------|
|------------|
|-7-7--9-9---|
|-5-5--5-5---|x8
|------------|
after that:
|------------|
|------------|
|------------|
|------------|
|-7-7--9-9---|x4
|-5-5--5-5---|

|----|
|----|
|----|
|----|
|-5--|
|-3--|
you then repeat that whole thing. after that its the chorus, which is:
|-------------------------------------------------------------------|
|-------------------------------------------------------------------|
|-------------------------------------------------------------------|
|-------------------------------------------------------------------|
|-9-9-9-9-9-9---7-7--5-5-5-5\--7-7----------------------------------|
|-7-7-7-7-7-7---5-5--3-3-3-3\--5-5----------------------------------|
repeat the verse and chorus again then its the solo. the solo is:
part 1
|----------------------------------------------------------------|
|----------------------------------------------------------------|
|-7-7-7-7--7-5-3-5---7-7-7-7-7-5-3-5--7-7-7-7-7-7-5-3-5----------|
|----------------------------------------------------------------|
|----------------------------------------------------------------|
|----------------------------------------------------------------|
part 2, guitar 1:
|-15b17-b17-b17--3--15b17--b17-b17-13---------------------15b17-|
|---------------------------------------15b17--b17-b17-13-------|
|---------------------------------------------------------------|
|---------------------------------------------------------------|
|---------------------------------------------------------------|
|---------------------------------------------------------------|
part 2, guitar 2:
|---------------------------------------------------------------|
|-15b17--b17-b17--13-15b17--15b17--b17-b17-13-------------------|
|---------------------------------------------12b14--b12-b12-10-|
|---------------------------------------------------------------|
|---------------------------------------------------------------|
|---------------------------------------------------------------|
after the solo, you dont play the intro. you play:
|---------------------------------------------------------------|
|-----6-6----6-----6--------------------------------------------|
|-----5-4----5-----4h5p4----------------------------------------|
|-0--------0---0------------------------------------------------|
|--0------------0-----------------------------------------------|
|---------------------------------------------------------------|
after that you repeat the verse and chorus.the ending is:
|-------13b15-b15-10-----------------------10-13b15-10----------------15b17|
|-13b15--------------13b15-----------13b15-----------13b15--10-13b15-10----|
|----------------------------10--12b14-------------------------------------|
|--------------------------------------------------------------------------|
|--------------------------------------------------------------------------|
|--------------------------------------------------------------------------|

|-15b17-b17-13--15b17------------------------------------------------------|
|--------------------------------------------------------------------------|
|--------------------------------------------------------------------------|
|--------------------------------------------------------------------------|
|--------------------------------------------------------------------------|
|--------------------------------------------------------------------------|
Tap to rate this tab
# A B C D E F G H I J K L M N O P Q R S T U V W X Y Z