Song name
# A B C D E F G H I J K L M N O P Q R S T U V W X Y Z

Beatles - Eight Days A Week chords

-----------------------------------------------------------------------------
			  Eight Days A Week - Beatles
-----------------------------------------------------------------------------
Tabbed by: caush123

Tuning: Standard

Tempo: 120

e|----0--0--0--0---0--0--0--0---0--0--0--0---0--0--0--0---------------------|
B|---10-10-10-10--12-12-12-12--15-15-15-15--10-10-10-10---------------------|
G|---11-11-11-11--13-13-13-13--16-16-16-16--11-11-11-11---------------------|
D|---12-12-12-12--14-14-14-14--17-17-17-17--12-12-12-12---------------------|
A|--------------------------------------------------------------------------|
E|--------------------------------------------------------------------------|
The intro is played at a 1 (2)& 3 4 rhythm
Then the song goes to the Verse

e|---2-2-2-2-2---0-0-0-0-0---3-3-3-3-3---2-2-2-2-2--------------------------|
B|---3-3-3-3-3---0-0-0-0-0---0-0-0-0-0---3-3-3-3-3--------------------------|
G|---2-2-2-2-2---1-1-1-1-1---0-0-0-0-0---2-2-2-2-2--------------------------|
D|---0-0-0-0-0---2-2-2-2-2---0-0-0-0-0---0-0-0-0-0--------------------------|
A|---------------2-2-2-2-2---2-2-2-2-2--------------------------------------|
E|---------------0-0-0-0-0---3-3-3-3-3--------------------------------------|

e|---2-2-2-2-2---0-0-0-0-0---3-3-3-3-3---2-2-2-2-2--------------------------|
B|---3-3-3-3-3---0-0-0-0-0---0-0-0-0-0---3-3-3-3-3--------------------------|
G|---2-2-2-2-2---1-1-1-1-1---0-0-0-0-0---2-2-2-2-2--------------------------|
D|---0-0-0-0-0---2-2-2-2-2---0-0-0-0-0---0-0-0-0-0--------------------------|
A|---------------2-2-2-2-2---2-2-2-2-2--------------------------------------|
E|---------------0-0-0-0-0---3-3-3-3-3--------------------------------------|
The verse is played at a 1 2 3 & 4 rhythm
Now its time to play the Pre-Chorus

e|---2-2-2-2-2---0-0-0-0-0---2-2-2-2-2---0-0-0-0-0--------------------------|
B|---3-3-3-3-3---0-0-0-0-0---3-3-3-3-3---0-0-0-0-0--------------------------|
G|---4-4-4-4-4---0-0-0-0-0---4-4-4-4-4---1-1-1-1-1--------------------------|
D|---4-4-4-4-4---0-0-0-0-0---4-4-4-4-4---2-2-2-2-2--------------------------|
A|---2-2-2-2-2---2-2-2-2-2---2-2-2-2-2---2-2-2-2-2--------------------------|
E|---------------3-3-3-3-3---------------0-0-0-0-0--------------------------|
The Pre-Chorus is played at a 1 2 & (3) & 4 rhythm
Now its back to the Verse but its a little longer this time 

e|---2-2-2-2-2---0-0-0-0-0---3-3-3-3-3---2-2-2-2-2--------------------------|
B|---3-3-3-3-3---0-0-0-0-0---0-0-0-0-0---3-3-3-3-3--------------------------|
G|---2-2-2-2-2---1-1-1-1-1---0-0-0-0-0---2-2-2-2-2--------------------------|
D|---0-0-0-0-0---2-2-2-2-2---0-0-0-0-0---0-0-0-0-0--------------------------|
A|---------------2-2-2-2-2---2-2-2-2-2--------------------------------------|
E|---------------0-0-0-0-0---3-3-3-3-3--------------------------------------|

e|---2-2-2-2-2---0-0-0-0-0---3-3-3-3-3---2-2-2-2-2--------------------------|
B|---3-3-3-3-3---0-0-0-0-0---0-0-0-0-0---3-3-3-3-3--------------------------|
G|---2-2-2-2-2---1-1-1-1-1---0-0-0-0-0---2-2-2-2-2--------------------------|
D|---0-0-0-0-0---2-2-2-2-2---0-0-0-0-0---0-0-0-0-0--------------------------|
A|---------------2-2-2-2-2---2-2-2-2-2--------------------------------------|
E|---------------0-0-0-0-0---3-3-3-3-3--------------------------------------|

e|---2-2-2-2-2---0-0-0-0-0---3-3-3-3-3---2-2-2-2-2--------------------------|
B|---3-3-3-3-3---0-0-0-0-0---0-0-0-0-0---3-3-3-3-3--------------------------|
G|---2-2-2-2-2---1-1-1-1-1---0-0-0-0-0---2-2-2-2-2--------------------------|
D|---0-0-0-0-0---2-2-2-2-2---0-0-0-0-0---0-0-0-0-0--------------------------|
A|---------------2-2-2-2-2---2-2-2-2-2--------------------------------------|
E|---------------0-0-0-0-0---3-3-3-3-3--------------------------------------|
Still played at the 1 2 3 & 4 rhythm
Back to the Pre-Chorus

e|---2-2-2-2-2---0-0-0-0-0---2-2-2-2-2---0-0-0-0-0--------------------------|
B|---3-3-3-3-3---0-0-0-0-0---3-3-3-3-3---0-0-0-0-0--------------------------|
G|---4-4-4-4-4---0-0-0-0-0---4-4-4-4-4---1-1-1-1-1--------------------------|
D|---4-4-4-4-4---0-0-0-0-0---4-4-4-4-4---2-2-2-2-2--------------------------|
A|---2-2-2-2-2---2-2-2-2-2---2-2-2-2-2---2-2-2-2-2--------------------------|
E|---------------3-3-3-3-3---------------0-0-0-0-0--------------------------|
Still played at the 1 2 & (3) & 4 rhythm
Then a shorter version of the Verse

e|---2-2-2-2-2---0-0-0-0-0---3-3-3-3-3---2-2-2-2-2--------------------------|
B|---3-3-3-3-3---0-0-0-0-0---0-0-0-0-0---3-3-3-3-3--------------------------|
G|---2-2-2-2-2---1-1-1-1-1---0-0-0-0-0---2-2-2-2-2--------------------------|
D|---0-0-0-0-0---2-2-2-2-2---0-0-0-0-0---0-0-0-0-0--------------------------|
A|---------------2-2-2-2-2---2-2-2-2-2--------------------------------------|
E|---------------0-0-0-0-0---3-3-3-3-3--------------------------------------|
This is still played at the 1 2 3 & 4 rhythm
Now the Chorus

e|---0-0-0-0-0-0-0-0--------------------------------------------------------|
B|---2-2-2-2-2-2-2-2--------------------------------------------------------|
G|---2-2-2-2-2-2-2-2--------------------------------------------------------|
D|---2-2-2-2-2-2-2-2--------------------------------------------------------|
A|---0-0-0-0-0-0-0-0--------------------------------------------------------|
E|---0-0-0-0-0-0-0-0--------------------------------------------------------|
This is played at a 1 2 3 4 rhythm

e|---2----------2-2-2-------------------------------------------------------|
B|---3----------3-3-3-------------------------------------------------------|
G|---4----------4-4-4-------------------------------------------------------|
D|---4----------4-4-4-------------------------------------------------------|
A|---2----------2-2-2-------------------------------------------------------|
E|--------------------------------------------------------------------------|
This is played at 1(2 3 4 1 2 3) & 4 & rhythm

e|---0-0-0-0-0-0-0-0-0------------------------------------------------------|
B|---0-0-0-0-0-0-0-0-0------------------------------------------------------|
G|---1-1-1-1-1-1-1-1-1------------------------------------------------------|
D|---2-2-2-2-2-2-2-2-2------------------------------------------------------|
A|---2-2-2-2-2-2-2-2-2------------------------------------------------------|
E|---0-0-0-0-0-0-0-0-0------------------------------------------------------|
This is played at a 1 2 3 4 rhythm

e|---3-3-3-3-3---0-0-0-0-0--------------------------------------------------|
B|---0-0-0-0-0---2-2-2-2-2--------------------------------------------------|
G|---0-0-0-0-0---2-2-2-2-2--------------------------------------------------|
D|---0-0-0-0-0---2-2-2-2-2--------------------------------------------------|
A|---2-2-2-2-2---0-0-0-0-0--------------------------------------------------|
E|---3-3-3-3-3---0-0-0-0-0--------------------------------------------------|
This is played at a 1 2 3 & 4 rhythm


Now that we have played the song to the chorus, we repeat from the 1st verse
 and play the whole thing again. Then play the song again (for the third time)
 but on the third time, don't play the chorus, but play the outro instead.

And this is the Outro

e|---3-3-3-3-3---2-2-2-2-2---3-3-3-3-3-3---2-2-2-2-2------------------------|
B|---0-0-0-0-0---3-3-3-3-3---0-0-0-0-0-0---3-3-3-3-3------------------------|
G|---0-0-0-0-0---2-2-2-2-2---0-0-0-0-0-0---2-2-2-2-2------------------------|
D|---0-0-0-0-0---0-0-0-0-0---0-0-0-0-0-0---0-0-0-0-0------------------------|
A|---2-2-2-2-2---------------2-2-2-2-2-2------------------------------------|
E|---3-3-3-3-3---------------3-3-3-3-3-3------------------------------------|
This is played at a 1 2 3 & 4 rhythm

e|----0--0--0--0---0--0--0--0---0--0--0--0---0--0--0--0---0-----------------|
B|---10-10-10-10--12-12-12-12--15-15-15-15--10-10-10-10---10----------------|
G|---11-11-11-11--13-13-13-13--16-16-16-16--11-11-11-11---11----------------|
D|---12-12-12-12--14-14-14-14--17-17-17-17--12-12-12-12---12----------------|
A|--------------------------------------------------------------------------|
E|--------------------------------------------------------------------------|
This played at a 1 (2)& 3 4 rhythm and just hold the last note

This is my first tab and I hope it was helpful

P.S- During the rhythm parts, the numbers in the () are to be held




Tap to rate this tab
 
# A B C D E F G H I J K L M N O P Q R S T U V W X Y Z