Song name
# A B C D E F G H I J K L M N O P Q R S T U V W X Y Z

Beatles - And I Love Her tab

                                           And I Love Her
                                            The Beatles
                                           Hard Day's Night
                                     John Lennon & Paul McCartney



Intro:
             Fm             D#              Fm
-|-------------------------------------------------------------|
-|-------------------------------------------------------------|
-|-------------------------------------------------------------|
-|-------------------------------------------------------------|
-|------6--5--3---------6--5--3---------6--5--3----------------|
-|----6--------------6---------------6-------------------------|



Verse 1
Fm        Cm
I give her all my love
Fm        Cm
That's all I do
Fm        Cm
And if you saw my love
G#             A#7
You'd love her too
       D#
I love her

Verse 2:
    Fm                          Cm
-|----------8--------------8------------8-----------8----------|
-|-------9------9-------9------9-----8-----8-----8-----8-------|
-|--10-------------10-------------8-----------8----------------|
-|-------------------------------------------------------------|
-|-------------------------------------------------------------|
-|-------------------------------------------------------------|
           She    gives  me       every     thing

    Fm                           Cm
-|----------8--------------8------------8-----------8----------|
-|-------9------9-------9------9-----8-----8-----8-----8-------|
-|--10-------------10-------------8-----------8----------------|
-|-------------------------------------------------------------|
-|-------------------------------------------------------------|
-|-------------------------------------------------------------|
           And     tender        ly

    Fm                          Cm
-|----------8--------------8------------8-----------8----------|
-|-------9------9-------9------9-----8-----8-----8-----8-------|
-|--10-------------10-------------8-----------8----------------|
-|-------------------------------------------------------------|
-|-------------------------------------------------------------|
-|-------------------------------------------------------------|
           The     kiss my       lover     brings

    G#                           A#7
-|---------8-------------8--------------10---------------------|
-|------9------9------9------9-------9-------9-----------------|
-|--8-------------8-------------10-----------------------------|
-|-------------------------------------------------------------|
-|-------------------------------------------------------------|
-|-------------------------------------------------------------|
          She    brings to      me

                 D#
-|----------10------------8-----------8-----------8------------|
-|-------9-------9-----8-----8-----8-----8-----8-----8---------|
-|--10--------------8-----------8-----------8-----------8------|
-|-------------------------------------------------------------|
-|-------------------------------------------------------------|
-|-------------------------------------------------------------|
       And  I  love    her


Middle
Cm          A#
A love like ours
Cm        Gm
Could never die
Cm       Gm
As long as I
          A#7
Have you near me


Verse 3 ( Play Arpeggio From Verse 2)
Fm        Cm
Bright are the stars that shine
Fm        Cm
Dark is the sky
Fm        Cm
I know this love of mine
 G#             A#7
will never die
       D#
And I love her


Guitar Solo:

    F#m       C#m          F#m       C#m           F#m       C#m
-|-----------------------------------------------------------------------|
-|-----------------------------------------------------------------------|
-|-----------8--6/9----------------8--8\6-----------------8--6/9---------|
-|--4--6--7---------------4--6--7----------------4--6--7-----------------|
-|-----------------------------------------------------------------------|
-|-----------------------------------------------------------------------|

     A        B7               E                     F#m
-|------------------------------------------------------------------------|
-|------------------------------------------------------------------------|
-|---9--6-----------------------------------------------------------------|
-|---------7--6--6\4--------------/6--------------------------------------|
-|-----------------------4--2--4--------2---------------------------------|
-|------------------------------------------4--2--0---2-------------------|


Verse 4 (Play Arpeggio ONE STEP HIGHER shown in verse 2)
F#m              C#m
Bright are the stars that shine
F#m              C#m
Dark is the sky
F#m              C#m
I know this love of mine
A         B7
Will never die
        E
And I love her


Ending:
             F#m              E             F#m             C#(Bar 1st Fret)
-|----------------------------------------------------------------|
-|----------------------------------------------------------------|
-|----------------------------------------------------------------|
-|----------------------------------------------------------------|
-|------7--6--4---------7--6--4---------7--6--4--------7--6--4----|
-|---7---------------7---------------7--------------7-------------|


Have Fun!!!

Watch Video to Play Along
http://www.youtube.com/watch?v=Nm4YlZ3oYsQ
Tap to rate this tab
# A B C D E F G H I J K L M N O P Q R S T U V W X Y Z