Song name
# A B C D E F G H I J K L M N O P Q R S T U V W X Y Z

Beatles - When Im Sixty Four chords

Highlighted       Show chord diagrams
My first tab i wanted to make sure this is to perfect this is how the beatles 
played the song the D9s and G13s in th echorus can be traded out for D7 and G7 it 
really doesnt matter but i wanted to be as accurate as possible thanks!


CAPO 1

Intro/Outro
e----------------------------0-----------------------------|
b-----------------1---0-1-3----3-1---1-3----1--------------|
g-------0---0-2-0------------------2--------0--------------|
d-2-1-2---2---------------------------------2--------------|
a------------------------------------------------3---------|
E----------------------------------------------6-----------|


Verse->

C
When I get older losing my hair,
                G7
Many years from now,

Will you still be sending me a valentine
                     C
Birthday greetings bottle of wine?

If I'd been out till quarter to three
C7                  F
Would you lock the door,
                Ab7      C              A7
Will you still need me, will you still feed me,
D9       G13     C
When I'm sixty-four?


Bridge ->
Am           F        Am
oo oo oo oo oo oo oo oooo
Am              E7 Am E7 Am E7 Am E7 Am7 
You'll be older too, (ah ah ah ah ah)
          Dm               Em
And if you say the word,
F         G         C
I could stay with you.

Verse ->
C                         
I could be handy mending a fuse
C7                          G7
When your lights have gone.
                           G       G7
You can knit a sweater by the fireside

Sunday mornings go for a ride.
C
Doing the garden, digging the weeds,
C7                       F
Who could ask for more? 
                  Ab7    C              A7
Will you still need me, will you still feed me,
D9      G13       C   C7 C
When I'm sixty-four?


Bridge->
Am
Every summer we can rent a cottage
             F       G                   Am
In the Isle of Wight, if it's not too dear
Am                    E7 Am E7 Am E7 Am7
We shall scrimp and save
              Dm            Em
Grandchildren on your knee
F     C          C
Vera, Chuck, and Dave


Verse->
C
Send me a postcard, drop me a line,
                 G7
Stating point of view.

Indicate precisely what you mean to say
                  G
Yours sincerely, Wasting Away.
C
Give me your answer, fill in a form
C7               F
  Mine for evermore
                Ab7      C              A7
Will you still need me, will you still feed me,
D9       G13      C7
When I'm sixty-four?
C
Whoo!



Intro/Outro
e----------------------------0-----------------------------|
b-----------------1---0-1-3----3-1---1-3----1--------------|
g-------0---0-2-0------------------2--------0--------------|
d-2-1-2---2---------------------------------2--------------|
a------------------------------------------------3---------|
E----------------------------------------------6-----------|
Tap to rate this tab
# A B C D E F G H I J K L M N O P Q R S T U V W X Y Z