Song name
# A B C D E F G H I J K L M N O P Q R S T U V W X Y Z

Beatles - Helter Skelter tab

                         When I get to the bottom,
  E  E E   S S S S S S S S S S S S S S S S
|----0-0-|-0-0-0-0-0-0-0-0-0-0-0-0-0-0-0-0-|
|---12s3-|-3-3-3-3-3-3-3-3-3-3-3-3-3-3-3-3-|
|--------|---------------------------------|
|--------|---------------------------------|
|--------|---------------------------------|
|--------|---------------------------------|

I go back to the top of the  slide. Where I stop and turn, and i go for a
  S S S S S S S S S S S S S S S S   S S S S S S S S S S S S S S S S
|-0-0-0-0-0-0-0-0-0-0-0-0-0-0-0-0-|-0-0-0-0-0-0-0-0-0-0-0-0-0-0-0-0--|
|-3-3-3-3-3-3-3-3-3-3-3-3-3-3-3-3-|-2-2-2-2-2-2-2-2-2-2-2-2-2-2-2-1--|
|---------------------------------|----------------------------------|
|---------------------------------|----------------------------------|
|---------------------------------|----------------------------------|
|---------------------------------|----------------------------------|

 ride. Till I get to the bottom, and I see you again.
  S S S S S S S S S S S S S S   
|-0-0-0-0-0-0-0-0-0-0-0-0-0-0--|
|-1-1-1-1-1-1-1-1-1-1-1-1-1-0--|
|------------------------------|
|------------------------------|
|------------------------------|
|------------------------------|

            E
Yeah, yeah, yeah.


E
Do you, don't you, want me to love you?

E
I'm coming down fast, but I'm miles above you.

E                          G
Tell me, tell me, tell me. Come on tell me the answer.

         A                                     E
Well you may be a lover, but you ain't no dancer.



Now, helter skelter,       helter skelter,
|-------------------------|-------------------------|
|-------------------------|-------------------------|
|-------------------------|-------------------------|
|-------------------------|-2-2-4-4-0-5-4-2---------|
|-2-2-4-4-0-5-4-2---------|-0-0-0-0---------5-4-2-0-|
|-0-0-0-0---------5-4-2-0-|-------------------------|

 helter skelter.
|-------------------------|
|-------------------------|
|-------------------------|
|-2-2-4-4-0-5-4-2---------|
|-0-0-0-0---------5-4-2-0-|
|-------------------------|


(E7)
Yeah, hu, hu.


E
I will you, won't you, want me to make you?

E
I'm coming down fast, but don't let me break you!

G
Tell me, tell me, tell me the answer.

    A                                  E
You may be a lover, but you ain't no dancer.




Now, helter skelter,       helter skelter,
|-------------------------|-------------------------|
|-------------------------|-------------------------|
|-------------------------|-------------------------|
|-------------------------|-2-2-4-4-0-5-4-2---------|
|-2-2-4-4-0-5-4-2---------|-0-0-0-0---------5-4-2-0-|
|-0-0-0-0---------5-4-2-0-|-------------------------|

 helter skelter.
|-------------------------|
|-------------------------|
|-------------------------|
|-2-2-4-4-0-5-4-2---------|
|-0-0-0-0---------5-4-2-0-|
|-------------------------|

(E7)
Yeah, yeah, yeah.

          E
Look out! Cause she's here come.



                         When I get to the bottom,
  E  E E   S S S S S S S S S S S S S S S S
|----0-0-|-0-0-0-0-0-0-0-0-0-0-0-0-0-0-0-0-|
|---12s3-|-3-3-3-3-3-3-3-3-3-3-3-3-3-3-3-3-|
|--------|---------------------------------|
|--------|---------------------------------|
|--------|---------------------------------|
|--------|---------------------------------|

I go back to the top of the  slide. Where I stop and turn, and i go for a
  S S S S S S S S S S S S S S S S   S S S S S S S S S S S S S S S S
|-0-0-0-0-0-0-0-0-0-0-0-0-0-0-0-0-|-0-0-0-0-0-0-0-0-0-0-0-0-0-0-0-0--|
|-3-3-3-3-3-3-3-3-3-3-3-3-3-3-3-3-|-2-2-2-2-2-2-2-2-2-2-2-2-2-2-2-1--|
|---------------------------------|----------------------------------|
|---------------------------------|----------------------------------|
|---------------------------------|----------------------------------|
|---------------------------------|----------------------------------|

 ride. Till I get to the bottom, and I see you again.
  S S S S S S S S S S S S S S   
|-0-0-0-0-0-0-0-0-0-0-0-0-0-0--|
|-1-1-1-1-1-1-1-1-1-1-1-1-1-0--|
|------------------------------|
|------------------------------|
|------------------------------|
|----------------------------- |

            E
Yeah, yeah, yeah.


     E                                       A 
But, do you, wont you, want me to make you?   (aaaaaaah)

E                                               A
I'm coming down faster, don't let me break you.  (aaaaaaah)

G
Tell me, tell me, tell me your answer.

    A                                   E
You may be a lover, but you ain't no dancer.
         
Look out!

helter skelter,       helter skelter,
|-------------------------|-------------------------|
|-------------------------|-------------------------|
|-------------------------|-------------------------|
|-------------------------|-2-2-4-4-0-5-4-2---------|
|-2-2-4-4-0-5-4-2---------|-0-0-0-0---------5-4-2-0-|
|-0-0-0-0---------5-4-2-0-|-------------------------|

 helter skelter.
|-------------------------|
|-------------------------|
|-------------------------|
|-2-2-4-4-0-5-4-2---------|
|-0-0-0-0---------5-4-2-0-|
|-------------------------|

E
Yeah.


          A
Look out! Helter skelter,

A
She's coming down fast!

A
Yes she is,

A
yes she is.

A
Coming down fast.

[Some random]
Tap to rate this tab
# A B C D E F G H I J K L M N O P Q R S T U V W X Y Z