Song name
# A B C D E F G H I J K L M N O P Q R S T U V W X Y Z

Beatles - Something tab

Beatles
Something - Solo 
Album "Abbey Road" 1969 

Tuning: normal 

Guitar Solo:
============
e|-----------------------------------------------------------------------------|
B|-----------------------------------------------------------------------13-13-|
G|-------------12--------------12b(14)--(14)r12-------------12p14-12-s15-------|
D|-------12p14----14~~--12p14-------------------14~~--12p14--------------------|
A|--(3)------------------------------------------------------------------------|
E|-----------------------------------------------------------------------------|

e|-----------------------------------------------------------------------------|
B|--(15)r13--(17)r15-13----------13-13---------------------------------10b(12)-|
G|----------------------14~--s14-----------12-12----------------11-11----------|
D|-------------------------------------s14-----------9p7-(9)s12----------------|
A|-----------------------------------------------12~---------------------------|
E|-----------------------------------------------------------------------------|

e|-----------------------------9-8s6-(8)s12-11-10~~----------------------------|
B|-10b(12)r(10)b(12)r(10)-8--8-------------------------------------------------|
G|--------------------------------------------------7b(9)r(7)b(9)r(7)b(9)r(7)-5|
D|-----------------------------------------------------------------------------|
A|-----------------------------------------------------------------------------|
E|-----------------------------------------------------------------------------|

e|-------------------------------------------------------(10)s12--10--8-10--8--|
B|-----------------------------------------------------8-----------------------|
G|-7b(9)r(7)b(9)r(7)b(9)r(7)-5--7b(9)r(7)b(9)r(7)-5--9-------------------------|
D|-----------------------------------------------------------------------------|
A|-----------------------------------------------------------------------------|
E|-----------------------------------------------------------------------------|

e|------------------------------|
B|-10---(14)r12-10--11--12--13--|
G|------------------------------|
D|------------------------------|
A|------------------------------|
E|------------------------------|


 --------------------
| h   hammer-on      |
| p   pull-off       |
| b   bend           |
| r   bend release   |
| s   slide up/down  |
| ~   vibrato        |
 --------------------
Tap to rate this tab
 
# A B C D E F G H I J K L M N O P Q R S T U V W X Y Z