Song name
# A B C D E F G H I J K L M N O P Q R S T U V W X Y Z

Beatles - Till There Was You tab

After Extensive Hours Of Watching Performances As Well As Listening To The Ed Sullivan
Performance Of This Song, I Have Come Up With This Tab That Is 99% Correct! Listen To The
Song A Few Times To Get The Feel For It As Well As Knowing How Many Times To Strum A 
Couple Of These Chords.

The Beatles
"Till There Was You" from With The Beatles (Nov. 22, 1963)
Tabs By RThomas

(/) Slide Up  (\) Slide Down  (h) Hammer On  (p) Pull Off  (b) Bend (r) Release (v) Vibrato

E|-------------------------------------------------------------------------------------------|
B|-----1-------------------------------1-------------3--------1--1-------------1-------------|
G|1/2-----2----------3--------------------2----------3--------3-----2-------------2----------|
D|-----------4--4/5-----5-----0--2--3--------4--4/5-----4-----2--------3--3/4--------4--4/5--|
A|-------------------------4-------------------------------3--3------------------------------|
E|-------------------------------------------------------------------------------------------|

E|------------------------------5-----------------3----------------------------------------|
B|3-----------------------------6--5--4-----3-----3-----1----------------------1--1--------|
G|---3-----3-----6--------------5--5--4-----3-----3--------2----------3--------3-----2-----|
D|------5-----8-----8-----8-----7--7--6-----5-----2--3--------3--3/5-----5-----2--------3--|
A|---------------------8-----8--8--7--6--5-----3--3-------------------------3--3-----------|
E|-----------------------------------------------------------------------------------------|

E|-----------------------------------------------5-----------------------------8--10--8--10--|
B|-----1-----------3--------------6--------------6--5--4-----3--3-----1--------8--8---8--8---|
G|--------2-----------3-----3-----6--------------5--5--4-----3--3--2-----2-----8--8---8--8---|
D|3/4--------4--5--------5-----8-----8-----8-----7--7--6-----5--2-----------3--7--7---7--7---|
A|--------------------------------------8-----8--8--7--6--5--5--3--------------8--8---8--8---|
E|-------------------------------------------------------------------------------------------|

E|6-----6-----6-----6---------------------------------5--------------3-----4--------4----|
B|---6-----6-----6-----6--10------10---------------5-----3--3--3--6--5--------5----------|
G|7-----7-----6-----6---------10------10--------5--------3--3--3--4--5-----------5-------|
D|---8-----8-----8-----8--10------10---------4-----------5--4--3-----5--6----------------|
A|----------------------------8-------8---5--------------5--5--5--5--3-------------------|
E|----------------------------------------------------------------3----------------------|

E|1--1p0--------------------------------------------6-----5-----4--3-----3-------------------|
B|--------1--3--1-----------3--------------------6--------6--5--4--3-----3-----1-------------|
G|-----------------2-----------3--------------6-----------5--5--4--3-----3--2-----2----------|
D|--------------------4--5--------5--3-----8--------------7--7--6--5-----2-----------3--3/5--|
A|--------------------------------------8--------------8--8--7--6--5--3--3-------------------|
E|-------------------------------------------------------------------------------------------|

E|---------------------------------------------------3--5--3--5--3--5--3/6--8--6--8--6--8--|
B|---------6-----------------------------4-----------3--5--3--5--3--5--3-6--8--6--8--6--8--|
G|------5-----7--5--------------------5-----7--5-----3--5--3--5--3--5--3-6--8--6--8--6--8--|
D|7--8--------------8--7--5-----4--7--------------8----------------------------------------|
A|---------------------------8-------------------------------------------------------------|
E|-----------------------------------------------------------------------------------------|

E|6-----10------8---7--6--5--1-------------------------------------6-----6-----------------|
B|6-----10------10--9--8--5-----1----------------------------6--------6-----6--10------10--|
G|6-----10------9---8--7--3--------2----------------------5-----7--6-----6---------10------|
D|------10--10--10--9--8--------------3-----------4--6/7--------------8-----8--10------10--|
A|---8--------------------4-----------------3--6-----------------------------------8-------|
E|------------------------2--------------5-------------------------------------------------|

E|--------------10-----------------------------4--------4--1--1p0----------------------------|
B|--------------10--3--3--------------3--5--------5----------------1--3--1-------------3-----|
G|10------------11--3--3--4--3--4-----4--5-----------5----------------------2-------------3--|
D|--------------10--5--4-----------5--5--5--6----------------------------------4--4/5--------|
A|8-------------12--5--5-----------------3---------------------------------------------------|
E|----8--9--10--10---------------------------------------------------------------------------|

E|------------------------5-----------3--3-----1--------------------------0--0--0--13--10--|
B|---------6--------------6--5--4-----3--3-----1--------------------------1--0--1--10--10--|
G|---3-----6--------------5--5--4-----3--3-----2--1--2--------------------0--1--0--10--10--|
D|5-----8-----8-----8-----7--7--6-----5--2--3--3--------3--2--3-----------2--2--2----------|
A|---------------8-----8--8--7--6--5--5--3-----------------------3--2--3--3--2--3----------|
E|-----------------------------------------------------------------------------------------|

E|13--10--11--9---11--9-------5--0-|
B|10--10--9---9---9---9---10--6--1-|
G|10--10--10--10--10--10--10--5--2-|
D|------------------------10--7--3-|
A|------------------------8---8--3-|
E|---------------------------------|

If You Believe There Is A Mistake Or You Would Like To Add Those Extra # Of Chord
Strums, Feel Free To Copy And Paste It And Add Or Correct Whatever The Issue May Be, All 
I Ask
Is You Credit Me For The Originals :) Enjoy!
Tap to rate this tab
# A B C D E F G H I J K L M N O P Q R S T U V W X Y Z