Song name
# A B C D E F G H I J K L M N O P Q R S T U V W X Y Z

Beatles - Love Me Do tab

Tabbed By: Kurt James Harrison
e-mail: metalhead_guy@hotmail.com

Intro:

    G            C                   G                        C
e|----------------------------------------------------------------------------|
b|--18~~~16/17~~~15------------------18-18-18-17-17-17-14/15------------------|
g|----------------------------------------------------------------------------|
d|-------------------17-17--17-17-17--------------------------17-17--17-17-17-|
a|----------------------------------------------------------------------------|
e|----------------------------------------------------------------------------|

    G            C                          G
e|----------------------------------------------------------------------------|
b|--18------17---15-----------------------------------------------------------|
g|------------------------------------17/16-------------------------17/16-----|
d|-------------------17--17--17-17-17---------17--17-17--17--17--17-----------|
a|----------------------------------------------------------------------------|
e|----------------------------------------------------------------------------|
*Harmonica arr. for gtr.


Verse:

G                C        |
Love, love me do          |
    G               C     |
you know I love you       |
     G              C     |
I'll always be true       |
                          |--- Repeat
so please                 |
                          |
Chorus:                   |
                          |
N.C.        G   C         |
    Love me do            |
C         G     C         |
Whoa, love me do          |


Bridge:

D
Someone to love
C
somebody new.
D
Someone to love
C               G
someone like you

(Repeat Verse & Chorus x1)


Solo:

    G              D                C         G    D
e|----------------------------------------------------------------------------|
b|--15------------------------------------------------------------------------|
g|-----------------14--14-----------------------------------------------------|
d|-----17-17-17-17--------17--16----17--15-14------14---14~~------------------|
a|--------------------------------------------17------------17-15/16---17-----|
e|----------------------------------------------------------------------------|

  C        G
e|----------------------------------------------------------------------------|
b|----------------------------------------------------------------------------|
g|-------------------------------------------17--16---------------------------|
d|--15--14-------17---17--17-17--17---17--17--------17--17-17---17------------|
a|---------17~~~~-------------------------------------------------------------|
e|----------------------------------------------------------------------------|


(Repeat verse & chorus x1)

C              G
 Yeah, love me do.
C      G
 Whoa, love me do.
C
 Yeah...


Fade Out
Tap to rate this tab
 
# A B C D E F G H I J K L M N O P Q R S T U V W X Y Z